Thrice - Blood Clots And Black Holes Chords & Tabs

 

Blood Clots And Black Holes Chords & Tabs

Thrice Chords & Tabs

Version: 3 Type: Tab 0 ratings
1 star 2 stars 3 stars 4 stars 5 stars
comments

Blood Clots And Black Holes Tab

Tabbed by:APerfectMistake
Email:CKYfan4life9@hotmail.com
       
Tuning:CGCFAD
One step down on every string...then another step on the low E string

Intro
D|---------------------------------------------------------------------------|
A|---------------------------------------------------------------------------|
F|---------------------------------------------------------------------------|
C|-----------------5---------------------------------------------------------|
G|-----7---5---5-7-----7---5h7p5--5-7---------7---5---5-7-----8-7---8-7------|
C|-0-0---0---0-------0---0----------------0-0---0---0-----0-7-----0----------|

D|---------------------------------------------------------------------------|
A|---------------------------------------------------------------------------|
F|---------------------------------------------------------------------------|
C|---------------------------------------------------------------------------|
G|-0----------------------8-8-8--0----------------------10-10-10-0-----------|
C|-0-0-000-000-000-000-00-8-8-8--0-0-000-000-000-000-00-10-10-10-0-0---------|

D|---------------------------------------------------------------------------|
A|---------------------------------------------------------------------------|
F|---------------------------------------------------------------------------|
C|---------------------------------------------------------------------------|
G|--------------------8-8-8-10--------------------7--------------------------|
C|-000-000-000-000-00-8-8-8-10-101010-101010-1010-7-7-777-777-77-------------|
[ Tab from: http://www.guitartabs.cc/tabs/t/thrice/blood_clots_and_black_holes_tab_ver_3.html ]
Chorus (rythem guitar)  play each set of chords twice
D|-----------------------|----------------------------|----------------------|
A|----------------------0|---------------------------0|----------------------|
F|-----------------------|----------------------------|----------------------|
C|-----------------------|----------------------------|----------------------|
G|-5-5-555-555-555-555--0|------8-8-888-888-888-888--0|----------------------|
C|-5-5-555-555-555-555---|------8-8-888-888-888-888---|----------------------|

Chorus (lead guitar)    repeat as above
D|----------------------|-----------------------|----------------------------|
A|----------------------|-----------------------|----------------------------|
F|-12-12-1212--77-99-10-|-12-12-1212--9999--12--|----------------------------|
C|-X--X--X-X---XX-XX-X--|-X--X--X-X---XXXX--X---|----------------------------|
G|-10-10-1010--55-77-8--|-10-10-1010--7777--10--|----------------------------|
C|----------------------|-----------------------|----------------------------|

Part After Chorus....after this the original part starts again
D|---------5/-------5/-------5/----------------------------------------------|
A|---------6/-------6/-------6/----------------------------------------------|
F|---------7/-------7/-------7/----------------------------------------------|
C|---------------------------------------------------------------------------|
G|---------------------------------------------------------------------------|
C|-0000000----00000----00000----00000000-------------------------------------|

Riff during the part that starts "Here's your new blood"
D|---------------------------------------------------------------------------|
A|---------------------------------------------------------------------------|
F|---------------------------------------------------------------------------|
C|------------------------7--------------------------------------------------|
G|-----8-----10-----8----------8-----10-----7/8-8h10p8-7/8-------------------|
C|-000---000----000---007---000--000----000----------------------------------|

Thats pretty much it....most of the song is just 
repeating the intro...but you can figure that out
Comments