Thrice - Betrayal Is A Symptim Chords & Tabs

 

Betrayal Is A Symptim Chords & Tabs

Thrice Chords & Tabs

Version: 1 Type: Bass Tab 0 ratings
1 star 2 stars 3 stars 4 stars 5 stars
comments

Betrayal Is A Symptim Bass Tab

   
Tuning is 1 1/2 step E string and 1/2 step the rest

Intro
Gb|-------------------------|
Db|-------------------------|
Ab|-------------------------|
C#|-0-7-5-0-3h4-0-7-5-0-3h4-|   do this a load of times then end on C#

verse
Gb|---------------------------------------------|
Db|----------------88-77-55---------------------|
Ab|----55-77-88------------------55-77-88-------|
C#|-2>----------2>-----------2>-----------5>-3>-|

Gb|---------------------------------------------|
Db|----------------88-77-55---------------------|
Ab|----55-77-88------------------55-77-88----5>-|
C#|-2>----------2>-----------2>-----------5>----|

chrous
Gb|--------------------------------------------|
Db|--------------------------------------------|
Ab|----77-3>-4h5>-7>-2>----77-5>-5h7-3>-2>-2h5-|
C#|-2>------------------2>---------------------|
[ Tab from: http://www.guitartabs.cc/tabs/t/thrice/betrayal_is_a_symptim_btab.html ]
cool bit
Gb|-----------------------------------|
Db|-----------------------------------|
Ab|----7----5----44----4h4--3333-5555-|
C#|-77---77---77---77-----------------| repeat four times

then
Gb|--------------------------------|
Db|--------------------------------|
Ab|--------------------------------|
C#|-0-7-5-0-3h4h3-0-7-5-0-3h4h5h6--| play loads

back to chrous,then
Gb|-------------|
Db|-------------|
Ab|-------------|
C#|-2>-0-2-4-5>-| play times four

then
Gb|-----------------------------|
Db|-----------------------------|
Ab|-----------------------------|
C#|-0-7-5-0-3h4-0-7-5-0-3h4h5h6-| play loads

2:20
Gb|----------8-----------------------|
Db|----------8-----------------------|
Ab|----------------------------------|
C#|-77-77-77----77-77-77-7-6-5-4-3h4-|

then to finish play this fast
Gb|-------------------------|
Db|-------------------------|
Ab|-------------------------|
C#|-0-7-5-0-3h4-0-7-5-0-3h4-|
Comments