Thrice - All Thats Left Chords & Tabs

 

All Thats Left Chords & Tabs

Thrice Chords & Tabs

Version: 1 Type: Tab 0 ratings
1 star 2 stars 3 stars 4 stars 5 stars
comments

All Thats Left Tab

Band: Thrice
Song: All That's Left 
Album: The Artist In The Ambulance
Tabbed By: JimmyNapalm84@aol.com
Modified By: nouse4aname7@yahoo.com
Tuned down half a step? 

Intro riff- Just Guitar and drums 
(palm muted) 
e|-----------------------------------------------------------------------------------|
b|-----------------------------------------------------------------------------------|
g|-----------------------------------------------------------------------------------|
d|------------6-----------------------------------4-----6--6--6------4----6--6--6----| 
A|-----6--------------6-------9------6------7-----4-----6--6--6------4----6--6--6----|
D|--6-----6-------6------6-------6------6---------4-----6--6--6------4----6--6--6----|

e|-----------------------------------------------------------------------------------| 
b|-----------------------------------------------------------------------------------|
g|-----------------------------------------------------------------------------------|
d|------------6--------------------------------------------9----------8--------------|
A|-----6--------------6-------9------6------7----------------------------------------|
D|--6-----6-------6------6-------6------6---------6-6-----6-6-6----------------------|

Strum this part (x2) 
e|----------------------------------------------------------------------------------| 
b|----------------------------------------------------------------------------------| 
g|----------------------------------------------------------------------------------| 
d|----6-6-6-6-6-6-6---4-4-4-4-4-4-4---2-2-2-2-2-2-2---4-4-4-4-4-4-4-----------------| 
A|----6-6-6-6-6-6-6---4-4-4-4-4-4-4---2-2-2-2-2-2-2---4-4-4-4-4-4-4-----------------|
D|----6-6-6-6-6-6-6---4-4-4-4-4-4-4---2-2-2-2-2-2-2---4-4-4-4-4-4-4-----------------| 

Vocals start 
Verse (x3) 
e|----------x-----------------x-------------x-------------------------------------------| 
b|---------13----------------11-------------9-------------------------------------------|
g|----------x-----------------x-------------x-------------------------------------------|
d|--6-6-----x--------6-6------x-----6-6-----x----------4-----6--6--6------4----6--6--6--| 
A|--6-6----11--------6-6------9-----6-6-----7----------4-----6--6--6------4----6--6--6--| 
D|--6-6-----x--------6-6------x-----6-6-----x----------4-----6--6--6------4----6--6--6--|

4th time 
e|--------------x-----------------x------------x-x-x-x-x-x-x-----| 
b|-------------13----------------11------------9-9-9-9-9-9-9-----| 
g|--------------x-----------------x------------x-x-x-x-x-x-x-----| 
d|----6-6-------x--------6-6------x-----6-6----x-x-x-x-x-x-x-----| 
A|----6-6------11--------6-6------9-----6-6----7-7-7-7-7-7-7-----| 
D|----6-6-------x--------6-6------x-----6-6----x-x-x-x-x-x-x-----| 


Lead riff over Chorus 
( I'm not sure if this is the exact way he plays it but it sounds like what he
plays and Its easy) 
Db|--0---8-7-----7h8-----0------| 
 b|-----------7--------7--------| 
 g|-----------------------------|
 d|-----------------------------| 
 A|-----------------------------| 
 D|-----------------------------| 
[ Tab from: http://www.guitartabs.cc/tabs/t/thrice/all_thats_left_tab.html ]
Chorus 
e|------------------------------------------------------| 
b|------------------------------------------------------| 
g|------------------------------------------------------|
d|---2-2-2-2-2-2-2---4-4-4-4-4-4-4---6-6-6-6-6-6-6------| 
A|---2-2-2-2-2-2-2---4-4-4-4-4-4-4---6-6-6-6-6-6-6------| 
D|---2-2-2-2-2-2-2---4-4-4-4-4-4-4---6-6-6-6-6-6-6------| 
A Ghost is all that's left 
e|------------------------------------------------------|
b|------------------------------------------------------| 
g|------------------------------------------------------| 
d|---2-2-2-2-2-2-2---4-4-4-4-4-4-4---6-6-6-6-6-6-6------| 
A|---2-2-2-2-2-2-2---4-4-4-4-4-4-4---6-6-6-6-6-6-6------| 
D|---2-2-2-2-2-2-2---4-4-4-4-4-4-4---6-6-6-6-6-6-6------| 
Of Everything we swore we never would forget 
e|----------------------------------------------------------|
b|----------------------------------------------------------|
g|----------------------------------------------------------|
d|---4-4-4-4-4-4-4----4-4-4-4-4-4-4---2-2-2-2-2-2-2-2-2-2---| 
A|---2-2-2-2-2-2-2----4-4-4-4-4-4-4---2-2-2-2-2-2-2-2-2-2---| 
D|--------------------4-4-4-4-4-4-4---2-2-2-2-2-2-2-2-2-2---|
Tried to drain this sickness, but we drained our hearts instead 
E|----------------------------------------|
b|----------------------------------------|
g|----------------------------------------|
d|----6-6-6-6-6-6-6--4-4-4-4-4-4-4---6----| 
A|----6-6-6-6-6-6-6--4-4-4-4-4-4-4---6----| 
D|----6-6-6-6-6-6-6--4-4-4-4-4-4-4---6----|(right into verse 2) 
We are We are the dead? 

Verse 2 (x3)
e|--------------x-----------------x-------------x-------------------------------------------| 
b|-------------13----------------11-------------9-------------------------------------------| 
g|--------------x-----------------x-------------x-------------------------------------------| 
d|--6-6---------x--------6-6------x-----6-6-----x----------4-----6--6--6------4----6--6--6--| 
A|--6-6--------11--------6-6------9-----6-6-----7----------4-----6--6--6------4----6--6--6--| 
D|--6-6---------x--------6-6------x-----6-6-----x----------4-----6--6--6------4----6--6--6--|

4th time 
e|--------------x------------------x------------x-x-x-x-x-x-x-------| 
b|-------------13-----------------11------------9-9-9-9-9-9-9-------| 
g|--------------x-----------------x-------------x-x-x-x-x-x-x-------| 
d|--6-6---------x--------6-6------x-----6-6-----x-x-x-x-x-x-x-------| 
A|--6-6--------11--------6-6------9-----6-6-----7-7-7-7-7-7-7-------| 
D|--6-6---------x--------6-6------x-----6-6-----x-x-x-x-x-x-x-------| 

Chorus 
e|---------------------------------------------------------|
b|---------------------------------------------------------|
g|---------------------------------------------------------|
d|------2-2-2-2-2-2-2---4-4-4-4-4-4-4---6-6-6-6-6-6-6------| 
A|------2-2-2-2-2-2-2---4-4-4-4-4-4-4---6-6-6-6-6-6-6------| 
D|------2-2-2-2-2-2-2---4-4-4-4-4-4-4---6-6-6-6-6-6-6------|
A Ghost is all that's left 
e|---------------------------------------------------------|
b|---------------------------------------------------------|
g|---------------------------------------------------------|
d|------2-2-2-2-2-2-2---4-4-4-4-4-4-4---6-6-6-6-6-6-6------|
A|------2-2-2-2-2-2-2---4-4-4-4-4-4-4---6-6-6-6-6-6-6------| 
D|------2-2-2-2-2-2-2---4-4-4-4-4-4-4---6-6-6-6-6-6-6------|
Of Everything we swore we never would forget 
e|----------------------------------------------------------|
b|----------------------------------------------------------|
g|----------------------------------------------------------|
d|----4-4-4-4-4-4-4----4-4-4-4-4-4-4---2-2-2-2-2-2-2-2-2-2--| 
A|----2-2-2-2-2-2-2----4-4-4-4-4-4-4---2-2-2-2-2-2-2-2-2-2--|
D|---------------------4-4-4-4-4-4-4---2-2-2-2-2-2-2-2-2-2--|
Tried to drain this sickness, but we drained our hearts instead 
e|----------------------------------------------------------| 
b|----------------------------------------------------------| 
g|----------------------------------------------------------|
d|---6-6-6-6-6-6-6--4-4-4-4-4-4-4---5-5-5-5-5-5-5-5-5-5--6--| 
A|---6-6-6-6-6-6-6--4-4-4-4-4-4-4---5-5-5-5-5-5-5-5-5-5--6--| 
D|---6-6-6-6-6-6-6--4-4-4-4-4-4-4---5-5-5-5-5-5-5-5-5-5--6--|(right into verse 2) 
We are We are the dead? 

Intro (Guitar & Drums)
e|----------------------------------------------------------------------------------|
b|----------------------------------------------------------------------------------|
g|----------------------------------------------------------------------------------|
d|------------6-----------------------------------4-----6--6--6------4----6--6--6---| 
A|-----6--------------6-------9------6------7-----4-----6--6--6------4----6--6--6---| 
D|--6-----6-------6------6-------6------6---------4-----6--6--6------4----6--6--6---| 

e|-----------------------------------------------| 
b|-----------------------------------------------| 
g|-----------------------------------------------| 
d|------------6----------------------------------| (pickslide)
A|-----6--------------6-------9------6------7----| 
D|--6-----6-------6------6-------6------6--------| 

Bridge (vocals) (x4)
e|--------------------------------------------------------------------------------|
b|--------------------------------------------------------------------------------|
g|--------------------------------------------------------------------------------|
d|---6-6-6-6-6-6-6--4-4-4-4-4-4-4---2-2-2-2-2-2-2---4-4-4-4-4-4-4-----------------| 
A|---6-6-6-6-6-6-6--4-4-4-4-4-4-4---2-2-2-2-2-2-2---4-4-4-4-4-4-4-----------------|
D|---6-6-6-6-6-6-6--4-4-4-4-4-4-4---2-2-2-2-2-2-2---4-4-4-4-4-4-4-----------------|
(Palm mutes on the 4th) 

Chorus x2
Comments