Thrice - All Eyes Chords & Tabs

 

All Eyes Chords & Tabs

Thrice Chords & Tabs

Version: 1 Type: Bass Tab 0 ratings
1 star 2 stars 3 stars 4 stars 5 stars
comments

All Eyes Bass Tab

   
Tuning: Standard (E A D G)


 Intro:
G|-----------------------|
D|-----------------------|
A|--3~~~~~~~--5~~~~~~~~~-|
E|-----------------------|

pre verse
G|------------------------------------------------------------------|
D|------------------------------------------------------------------|
A|----------------------------------3-3-33--3-3-33--5-5-55--5-5-55--|
E|--3-3-33--3-3-33--0-0-00--0-0-00----------------------------------|  X2
[ Tab from: http://www.guitartabs.cc/tabs/t/thrice/all_eyes_btab.html ]
 Verse: 
G|--------------------------------------------------------------------|
D|--------------------------------------------------------------------|
A|--77777777999999993333333300000000----------------5555555555555555--|
E|----------------------------------3333333333333333------------------| X2
 
G|--------------------------------------------|
D|--------------------------------------------|
A|--3333333333333333--------------5--5--5-----|
E|---------------------3--3--3----------------|
      
G|-----------------------------------------------------------------------|
D|-----------------------------------------------------------------------|
A|--3333333333333333-----------------------------------------------------|
E|------------------3333333333333333/1010101010101010101010101010101010--|
   
G|----------------------------------------------------------------------------|
D|----------------------------------------------------------------------------|
A|--3333333333333333--------------5--5--5---33333333333333335555555555555555--|
E|---------------------3--3--3------------------------------------------------|
                   

 (repeat pre verse)
 (repeat verse)

 the 'all eyes on me' bit 
G|----------------------------------------------------------------------|
D|----------------------------------------------------------------------|
A|------------------5555555555555555--7777777777777777333333333333333---|
E|--3333333333333333----------------------------------------------------| X3 
  
G|--------------------------------------------------------|
D|--------------------------------------------------------|
A|------------------5555555555555555--77777777777777773---|
E|--3333333333333333--------------------------------------|
Comments