Three Nails Short - Child Of Zion Chords & Tabs

 

Child Of Zion Chords & Tabs

Three Nails Short Chords & Tabs

Version: 1 Type: Bass Tab

Child Of Zion Bass Tab

   
Child of Zion
Three Nails Short
When the Lines Move
Tabbed by Taylor Smith
Standard Tuning
(EADG)
This band plays at my church all the time. they;re a local band
that kinda debuted at our church and ever since then they've released
like 2 albums. check them out at www.threenailsshort.com

www.threenailsshort.com

  Intro  0:20
G|-------------------------------------------------------|
D|--------------------------------------------7----------|
A|---------------------------44-44-44-44h6---------------|
E|-00-00-00-00-55-5-55-55777---------------55---55-555p0-|

G|-----------------------------|
D|-----------------------------|
A|-----------------------------|
E|-00-000-00-00-55-55-55-55777-|

  Verse
G|-----------------------------------------------------------------------------|
D|-----------------------------------------------------------------------------|
A|---------------------------------6h7-----------------------44-44-44-44-------|
E|-00-00-00-00-55-555-55-5-55-0-00-----0-00-00-55-55-55-5557-------------55-55-|

G|-----------------------------------------|
D|-----------------------------------------|
A|-----------------------------------------|
E|-55-55777-00-00-00-00-55-555-55-55555577-|

  Chorus
G|-------------------------------------------------------|
D|----------------7---------------------------7----------|
A|---------------------------44-44-44-44h6---------------|
E|-00-00-00-00-55---55-55777---------------55---55-555p0-|

G|-----------------------------|
D|-----------------------------|
A|-----------------------------|
E|-00-000-00-00-55-55-55-55777-|

[ Tab from: http://www.guitartabs.cc/tabs/t/three_nails_short/child_of_zion_btab.html ]
  Verse
G|-------------------------------------------------------------------------------|
D|-------------------------------------------------------------------------------|
A|-----------------------------------------------------------44-44-44-44h6-------|
E|-00-00-00-00-55-555-55-5-55-0-00-00--0-00-00-55-55-55-5557---------------55-55-|

G|-----------------------------------------|
D|-----------------------------------------|
A|-----------------------------------------|
E|-55-55777-00-00-00-00-55-555-55-55555577-|


  Chorus
G|-------------------------------------------------------|
D|----------------7---------------------------7----------|
A|---------------------------44-44-44-44h6---------------|
E|-00-00-00-00-55---55-55777---------------55---55-555p0-|


  Bridge/solo
G|----------------------------------------------------------------------------|
D|-----------------------7-----7------7----7----------------------------------|
A|------------------0-00---000---0-00---00---4/16-18-16-18p16\000000000000000-|
E|-0/12-14-12-14p12-----------------------------------------------------------|

  Prechorus
G|-------------------------------------------------------|
D|----------------7---------------------------7----------|
A|---------------------------44-44-44-44-----------------|
E|-00-00-00-00-55---55-55777---------------55---55-55577-|


  Chorus
G|-------------------------------------------------------|
D|----------------7---------------------------7----------|
A|---------------------------44-44-44-44h6---------------|
E|-00-00-00-00-55---55-55777---------------55---55-555p0-|


  Outro
G|----------------------------------------------------------------------------|
D|-----------------------7-----7------7----7----------------------------------|
A|------------------0-00---000---0-00---00---4/16-18-16-18p16\000000000000000-|
E|-0/12-14-12-14p12-----------------------------------------------------------|


  Ending
G|----------|
D|----------|
A|-0-00-2---|
E|--------0-|