Three Eyes A Merchant - Cantelope Chords & Tabs

 

Cantelope Chords & Tabs

Three Eyes A Merchant Chords & Tabs

Version: 1 Type: Tab 0 ratings
1 star 2 stars 3 stars 4 stars 5 stars
comments

Cantelope Tab

E---------------------------------------------
B-------1-----1-----------1-----1-------------
G-------0---0---0---0-----2---2---2---2------- play three times
D----2----2-------2-----3---3-------3---------
A--3------------------0-----------------------
E---------------------------------------------

----------------------------------
---------1--------1---------------
--0----0---2----2----------------- play twice
--2--2-----3--3-------------------
--3--------0----------------------
----------------------------------

repeat twice then play:

-----------------------------------------------------
------1-----1-------1---------1-----1-------1--------
------0---0---0---0---0-------2---2---2---2---2------play twice
----2---2-------2-------2---3---3-------3-------3----
--3-----------------------0--------------------------
-----------------------------------------------------
[ Tab from: http://www.guitartabs.cc/tabs/t/three_eyes_a_merchant/cantelope_tab.html ]
---------------------------------------------
-------1-----1-----------1-----1-------------
-------0---0---0---0-----2---2---2---2------- play twice
----2----2-------2-----3---3-------3---------
--3------------------0-----------------------
---------------------------------------------

-----------------------------------------------------
------1-----1-------1---------1-----1-------1--------
------0---0---0---0---0-------2---2---2---2---2------ play twice
----2---2-------2-------2---3---3-------3-------3----
--3-----------------------0--------------------------
-----------------------------------------------------

-------------------------------------
--------1-------1-------1------------
------0---0---0-------2---2---2-2---- play twice
----2-------2-------3-------3--------
--3---------------0------------------
-------------------------------------

--------------------------------
--------1-----------1-----------
----0-----0-----2-----2--------- play twice
------2-----2-----3-----3-------
--3-----------0-----------------
--------------------------------

---------
--1--1--- play four times..,
--2--0--- as you play, play each one softer
--3--2--- let last one ring out
--0--3---
--------- 
Comments