Three Dog Night - Show Must Go On Chords & Tabs

 

Show Must Go On Chords & Tabs

Three Dog Night Chords & Tabs

Version: 1 Type: Tab 0 ratings
1 star 2 stars 3 stars 4 stars 5 stars
comments

Show Must Go On Tab

   
The Show Must Go On
As Performed by Three Dog Night

This is totally my own interpretation of the song but it should be
very close.   I love the intro and circus style main riff!
Any questions email me at arvid_a@yahoo.com


C#                    Eb
-9-999-9876543210-----11-111111-1110987654321---|
-----------------432-------------------------54-|
------------------------------------------------|
------------------------------------------------|
------------------------------------------------|
------------------------------------------------|

E
--12-121212-0123456789101112----------------|
--------------------------------------------|
--------------------------------------------|
--------------------------------------------|
--------------------------------------------|
--------------------------------------------|

  F
-13-12-111211-10-9-8-7-8--10-9-898-7-6-5-4-5--------|
----------------------------------------------------|
----------------------------------------------------|
----------------------------------------------------|
----------------------------------------------------|
----------------------------------------------------|
[ Tab from: http://www.guitartabs.cc/tabs/t/three_dog_night/show_must_go_on_tab.html ]
C
--8--------8---------------77-99-10910-12-10-8------|
---88-7-8---88-7-8-88-1010--------------------------|
----------------------------------------------------|
----------------------------------------------------|
----------------------------------------------------|
----------------------------------------------------|
F                                                           C
Baby although I've chose this lonely life.... It seems it's stranglin' me now
F                                                        C
All the wild men, big cigars, gigantic car...They're all laughin' at the lie
             Dm              Am7                Dm              Am7
Oh, I've been used  Ooo-oo-oo-oo... I've been a fool  Oh, what a fool
               Dm              Am7             Bb                  F  n.C.
I broke all the rules....  Oh, yeah..... But I must let the show go on
F                                                       C
Baby, there's an enormous crowd of people... They're all after my blood

       F                                                           C
I wish maybe they'd tear down the walls of this theatre.... Let me out, let me out
          Dm                Am7
Oh, I'm so blind.... Oh, I'm blind...
         Dm                           Am7
I wasted time  Wasted, wasted, wasted time
               Dm           Am7           Bb                   F  n.C.
Walkin' on the wire.... high wire... But I must let the show go on

 F   C   F   C

           Dm               Am7
Oh, I'm so blind.... Oh, I'm blind...
         Dm                                  Am7
I wasted time  Wasted, wasted, all too much time
               Dm           Am7          Bb                   F n.C.
Walkin' on the wire... high wire... But I must let the show go on
F                                                C
Baby, I wish you'd help me escape... Help me get away
F                                                C
Leave me outside my address... Far away from this masquerade
                 Dm               Am7
'Cause I've been blind....  Oh, so blind...
         Dm                                 Am7
I wasted time  Wasted, wasted, all too much time
               Dm             Am7           Bb
Walkin' on the wire..... high wire... But I must let the show go
  Bb                       Bb                   F n.C.
I must let the show go... I must let the show go on

  F    C     F    C
Comments