Three Dog Night - Shambala Chords & Tabs

 

Shambala Chords & Tabs

Three Dog Night Chords & Tabs

Version: 1 Type: Chords 0 ratings
1 star 2 stars 3 stars 4 stars 5 stars
comments

Shambala Chords

   
                             SHAMBALA
                          Three Dog Night

Tab by:omanyen@fusemail.com


INTRO:
        E                 D             A
-------------------|---------------|----------------|
--------------0----|---------3-----|----------------|
-----------1-----1-|------2-----2--|---------2------|
--------2----------|---0-----------|----------------|
--2--4-------------|---------------|-----4----------|
-------------------|---------------|--5----------5--|

         ( repeat this sequence 4 times )

      E           D           A
Wash away my troubles, wash away my pain

          E      D      A
with the rain in Shambala.

      E         D          A
wash away my sorrow, wash away my shame,

          E      D      A
with the rain in Shambala.


(before this next part, play just the 6th string-G, F#, open E)

           E        D   A 
Ahh - ahh, oooh - oooh, oooh - oooh, yeah.

 E             D             A
yeah - yeah - yeah - yeah - yeah.

        ( repeat )

     E           D        A
Everyone is helpful, everyone is kind,
[ Tab from: http://www.guitartabs.cc/tabs/t/three_dog_night/shambala_crd.html ]
       E       D      A
on the road to Shambala.

     E          D       A
Everyone is lucky, everyone is so kind,

       E       D      A
on the road to Shambala.


CHORUS:

A                                D        E
How does your light shine in the halls of Shambala?

A                                D        E
How does your light shine in the halls of Shambala?


LEAD: r^ = already bent up, release bend   \=slide down  h=hammer
      b=bend                               /=slide up    r=rake
---12--------------------------------------------------------------|
---12--------------------------------------------------------------|
-------11r^---9---9---------------------------------9--11b--9h11r9-|
----------------------11\9-----------------9--9h11-----------------|
-----------------------------7---7---9/11--------------------------|
-------------------------------------------------------------------|


2nd VERSE:

I can tell my sister, by the flowers in her eyes,

on the road to Shambala.

I can tell my brother, by the flowers in his eyes,

on the road to Shambala.

   ( CHORUS )


   Any questions, comments, or complaints, feel free
   to E-mail me or post a thread at this sight.
Comments