Three Dog Night - Joy To The World Chords & Tabs

 

Joy To The World Chords & Tabs

Three Dog Night Chords & Tabs

Version: 1 Type: Tab 0 ratings
1 star 2 stars 3 stars 4 stars 5 stars
comments

Joy To The World Tab

e----------------------------19--17--------------------------|
B----15----19-17-15----10----------19-17-15------------------|
G------------------------------------------------------------|
D------------------------------------------------------------|
A------------------------------------------------------------|
E------------------------------------------------------------|

e----------------------19----------------17------------------|
B----12-15----17-15------19-15---------15--17-15-------------|
G---------------------------------14-16----------------------|
D------------------------------------------------------------|
A------------------------------------------------------------|
E------------------------------------------------------------|
[ Tab from: http://www.guitartabs.cc/tabs/t/three_dog_night/joy_to_the_world_tab.html ]
Comments