Three Days Grace - Wake Up Chords & Tabs

 

Wake Up Chords & Tabs

Three Days Grace Chords & Tabs

Version: 8 Type: Tab 0 ratings
1 star 2 stars 3 stars 4 stars 5 stars
comments

Wake Up Tab

THREE DAYS GRACE - WAKE UP (Live) from their self-titled Ltd Edition CD/DVD
Drop - D Tuning
DADGBE
TABBED BY NATHAN W.

This is them LIVE IN BRAZIL, strum for strum.  Seriously, this is deadly accurate!
Everything is 100% correct. I've watched the DVD over and over and over and this is
IT!! The bridge is kind of long, but it is right on!! Just play it and see! Also, all
measures are lined up perfectly between both guitars, so each strum coincides with each
guitar so that you can play this with perfect timing.

Please DO NOT rate until you have seen the DVD!! This tab is not wrong!!!Comments
welcome!!!!

Guitar 1 - Barry Stock
Guitar 2 - Adam Gontier

INTRO - 3X  
Guitar 2 - Slight Distortion   
E|-------------------------------------------------------------------|
B|-------------------------------------------------------------------|
G|------------0-------------0---------------0------------------------|
D|--------4----4---4------4---4----------7-----7---7----7---5---4----|
A|------2---2----2------0--------------5---5-----5-------------------|
D|-0-2---------------0-----------0-5-----------------0---0---0-------|

VERSE  2X
Guitar 1 - Reverb on
E|-------------------------------------------------------------------|
B|-------------------------------------------------------------------|
G|------------0-------------0---------------0------------------------|
D|--------4----4---4------4---4----------7-----7---7----7---5---4~---|
A|------2---2----2------0--------------5---5-----5-------------------|
D|-0--2---------------0-----------0--5-----------------0---0---0-----|

Guitar 2 - Some distortion (more than INTRO, but less than CHORUSES)
|--------------------------------------------------------------------|
|--------------------------------------------------------------------|
|--------------------------------------------------------------------|
|-----2---------------0--------------5-----------------0-------------|
|-----2---------------0--------------5-----------------0-------------|
|-----2---------------0--------------5-----------------0-------------|

PRE-CHORUS  -  Part 1
Guitar 1 - High Distortion
E|---------------------------------------------------|
B|---------------------------------------------------|
G|---------------------------------------------------|
D|-7-------9---------10--------12--------------------|
A|-7-6X----9-6X------10-6X-----12-6X-----------------|
D|-7-------9---------10--------12--------------------|

Guitar 2 - High Distortion
E|---------------------------------------------------|
B|---------------------------------------------------|
G|---------------------------------------------------|
D|-7-------9---------10--------0---------------------|
A|-7-6X----9-6X------10-6X-----0-6X------------------|
D|-7-------9---------10--------0---------------------|

PRE-CHORUS  -  Part 2
Guitar 1 - High Distortion
E|-----------------------------------------------------------------|
B|-----------------------------------------------------------------|
G|--------------------------------11-11-11-12-14---11-11-11-12-14--|
D|-7-------9---------10-----------9--9--9--10-12---9--9--9--10-12--|
A|-7-6x----9-6x------10-6x--------9--9--9--10-12---9--9--9--10-12--|
D|-7-------9---------10--------------------------------------------| 

Guitar 2 - High Distortion
E|-----------------------------------------------------------------|
B|-----------------------------------------------------------------|
G|-----------------------------------------------------------------|
D|-7-------9---------10-----------0--0--0--0--0----0--0--0--0--0---|
A|-7-6X----9-6X------10-6X--------0--0--0--0--0----0--0--0--0--0---|
D|-7-------9---------10-----------0--0--0--0--0----0--0--0--0--0---|  
                                                           
CHORUS - Part 1
Both Guitars - Distortion
E|--------------------------------------------------|
B|--------------------------------------------------|
G|--------------------------------------------------|
D|-0-2-2-0-2-----2-0-0-0-0--5-5-5-5-5-----5-0-0-0-0-|
A|-0-2-2-0-2-----2-0-0-0-0--5-5-5-5-5-----5-0-0-0-0-|
D|-0-2-2-0-2-----2-0-0-0-0--5-5-5-5-5-----5-0-0-0-0-|

CHORUS - Part 2
Guitar 1
E|---------------------------------------------------|
B|---------------------------------------------------|
G|---------------------------------------------------|
D|-0-2-2-0-2-----9-9-9-9---10101010--1010--0-0--0-0--|
A|-0-2-2-0-2-----9-9-9-9---10101010--1010--0-0--0-0--|
D|-0-2-2-0-2-----9-9-9-9---10101010--1010--0-0--0-0--|

Guitar 2
E|---------------------------------------------------|
B|---------------------------------------------------|
G|---------------4-4-4-4---5-5-5-5--5-5--------------|
D|-0-2-2-0-2-----4-4-4-4---5-5-5-5--5-5----0-0--0-0--|
A|-0-2-2-0-2-----2-2-2-2---3-3-3-3--3-3----0-0--0-0--|
D|-0-2-2-0-2-------------------------------0-0--0-0--|

VERSE        3X
PRE-CHORUS   2X
CHORUS       2X

BRIDGE - High Distortion all the way through the end of the song!!!!
Guitar 1
E|---------------------------------------------------|
B|---------------------------------------------------|
G|---------------------------------------------------|
D|-7-------9---------10--------12--------------------|
A|-7-6X----9-6X------10-6X-----12-6X-----------------|
D|-7-------9---------10--------12--------------------|
[ Tab from: http://www.guitartabs.cc/tabs/t/three_days_grace/wake_up_tab_ver_8.html ]
Guitar 2
E|---------------------------------------------------|
B|---------------------------------------------------|
G|---------------------------------------------------|
D|-7-------9---------10--------0---------------------|
A|-7-6X----9-6X------10-6X-----0--6X-----------------|
D|-7-------9---------10--------0---------------------|

Guitar 1
E|-----------------------------------------------|
B|-----------------------------------------------|
G|----------------------------11-11-11-12-11-----|
D|-7-------9---------10-------9--9--9--10-9------|
A|-7--6X---9--6X-----10--6X---9--9--9--10-9------|
D|-7-------9---------10--------------------------| 

Guitar 2
E|-----------------------------------------------|
B|-----------------------------------------------|
G|-----------------------------------------------|
D|-7-------9---------10-------0--0--0--0--0------|
A|-7-6X----9-6X------10--6X---0--0--0--0--0------|
D|-7-------9---------10-------0--0--0--0--0------| 

Guitar 1
E|-----------------------------------------------|
B|-----------------------------------------------|
G|-----------------------------------------------|
D|-7-------9---------10--------12----------------|
A|-7-6X----9-6X------10-6X-----12-6X-------------|
D|-7-------9---------10--------12----------------|

Guitar 2
E|---------------------------------------------------|
B|---------------------------------------------------|
G|---------------------------------------------------|
D|-7-------9---------10--------0---------------------|
A|-7-6X----9-6X------10-6X-----0--6X-----------------|
D|-7-------9---------10--------0---------------------|

Guitar 1
E|---------------------------------------------------|
B|---------------------------------------------------|
G|---------------------------[-11-11-11-12-14-]------|
D|-7-------9---------10------[-9--9--9--10-12-]-4X---|
A|-7--6X---9--6X-----10-6X---[-9--9--9--10-12-]------|
D|-7-------9---------10------------------------------| 

Guitar 2
E|---------------------------------------------------|
B|---------------------------------------------------|
G|---------------------------------------------------|
D|-7-------9---------10------[-0--0--0--0--0--]------|
A|-7-6X----9-6X------10-6X---[-0--0--0--0--0--]-4X---|
D|-7-------9---------10------[-0--0--0--0--0--]------|


POST BRIDGE RIFF  Guitars Only 1X
Guitar 1    
E|-------------------------------------------------------|
B|-------------------------------------------------------|
G|----------------------------------------11-11-11-12-14-|
D|-0-2-2-0-2-----2-0-0-0-0--5-5-5-5-5-----9--9--9--10-12-|
A|-0-2-2-0-2-----2-0-0-0-0--5-5-5-5-5-----9--9--9--10-12-|
D|-0-2-2-0-2-----2-0-0-0-0--5-5-5-5-5--------------------|

Guitar 2
E|-------------------------------------------------------|
B|-------------------------------------------------------|
G|-------------------------------------------------------|
D|-0-2-2-0-2-----2-0-0-0-0--5-5-5-5-5-----5--0--0--0--0--|
A|-0-2-2-0-2-----2-0-0-0-0--5-5-5-5-5-----5--0--0--0--0--|
D|-0-2-2-0-2-----2-0-0-0-0--5-5-5-5-5-----5--0--0--0--0--|

CHORUS - Part 1
Both Guitars - Distortion
E|--------------------------------------------------|
B|--------------------------------------------------|
G|--------------------------------------------------|
D|-0-2-2-0-2-----2-0-0-0-0--5-5-5-5-5-----5-0-0-0-0-|
A|-0-2-2-0-2-----2-0-0-0-0--5-5-5-5-5-----5-0-0-0-0-|
D|-0-2-2-0-2-----2-0-0-0-0--5-5-5-5-5-----5-0-0-0-0-|

CHORUS - Part 2
Guitar 1
E|---------------------------------------------------|
B|---------------------------------------------------|
G|---------------------------------------------------|
D|-0-2-2-0-2-----9-9-9-9---10101010--1010--0-0--0-0--|
A|-0-2-2-0-2-----9-9-9-9---10101010--1010--0-0--0-0--|
D|-0-2-2-0-2-----9-9-9-9---10101010--1010--0-0--0-0--|

Guitar 2
E|---------------------------------------------------|
B|---------------------------------------------------|
G|---------------4-4-4-4---5-5-5-5--5-5--------------|
D|-0-2-2-0-2-----4-4-4-4---5-5-5-5--5-5----0-0--0-0--|
A|-0-2-2-0-2-----2-2-2-2---3-3-3-3--3-3----0-0--0-0--|
D|-0-2-2-0-2-------------------------------0-0--0-0--|

Both Guitars
E|--------------------------------------------------|
B|--------------------------------------------------|
G|--------------------------------------------------|
D|-0-2-2-0-2-----2-0-0-0-0--5-5-5-5-5-----5-0-0-0-0-|
A|-0-2-2-0-2-----2-0-0-0-0--5-5-5-5-5-----5-0-0-0-0-|
D|-0-2-2-0-2-----2-0-0-0-0--5-5-5-5-5-----5-0-0-0-0-|

Guitar 1
E|-----------------------------------------------------------------|
B|-----------------------------------------------------------------|
G|----------------------------------------11-11-12-14-<------------|
D|-0-2-2-0-2-----9-9-9-9---10101010--1010-11-11-12-12-<-slide down-|
A|-0-2-2-0-2-----9-9-9-9---10101010--1010-9--9--10-12-<------------|
D|-0-2-2-0-2-----9-9-9-9---10101010--1010--------------------------|

Guitar 2
E|-----------------------------------------------------------------|
B|-----------------------------------------------------------------|
G|---------------4-4-4-4---5-5-5-5---5-5---------------------------|
D|-0-2-2-0-2-----4-4-4-4---5-5-5-5---5-5--0--0--0--0---------------|
A|-0-2-2-0-2-----2-2-2-2---3-3-3-3---3-3--0--0--0--0---------------|
D|-0-2-2-0-2------------------------------0--0--0--0---------------|

By the way, those are random harmonics at the end of the RECORDED VERSION (this is the
LIVE VERSION of them in Brazil on their DVD!!)
Comments