Three Days Grace - Wake Up Chords & Tabs

 

Wake Up Chords & Tabs

Three Days Grace Chords & Tabs

Version: 7 Type: Tab 0 ratings
1 star 2 stars 3 stars 4 stars 5 stars
comments

Wake Up Tab

this is my first tab but i know its right so here it is.
  
  everybody thinks ALL THREE DAYS GRACE song r in drop d but this one isn't
its in standerd tuning

p-pull off
h-harmer on
v-vibroto


intro
|-------------------------------------------------------------------|
|---------------------------------------0-----0-----0---------------|
|--------1-2p1-1-------1----2-1-------2-----2-----------2---1v------|
|--------------------2--------------2-------------------------------|
|---------------------------------0-------0-------------------------|
|-0h2-2------------0------0---------------------0-0---0---0---------|

verse
|-------------------------------------------------------------------|x5
|---------------------------------------0-----0-----0---------------|
|--------1-2p1-1-------1----2-1-------2-----2-----------2---1v------|
|--------------------2--------------2-------------------------------|
|---------------------------------0-------0-------------------------|
|-0h2-2------------0------0---------------------0-0---0---0---------|

pre-chorus:distroted
|------------------------------------------------------------------------|
|------------------------------------------------------------------------|
|------------------------------------------------------------------------|
|-44444444-66666666-77777777-99999999-44444444-66666666-77777777---------|
|-22222222-44444444-55555555-77777777-22222222-44444444-55555555-2--222--|
|----------------------------------------------------------------0--000--|

chorus:distroted
|---------------------------------------------------------------------------------|
|---------------------------------------------------------------------------------|
|---------------------------------------------------------------------------------|
|-------------------------------------------------------------------7777-7--------|
|-4---4---4---4-2-2222--7---7---7---7-2-2222--4---4---4---4-2-2222--5555-5-2-222--|
|-2-0-2-0-2---2-0-0000--5-0-5-0-5---5-0-0000--2-0-2-0-2---2-0-0000---------0-000--|

verse
|-------------------------------------------------------------------|x3
|---------------------------------------0-----0-----0---------------|
|--------1-2p1-1-------1----2-1-------2-----2-----------2---1v------|
|--------------------2--------------2-------------------------------|
|---------------------------------0-------0-------------------------|
|-0h2-2------------0------0---------------------0-0---0---0---------|
[ Tab from: http://www.guitartabs.cc/tabs/t/three_days_grace/wake_up_tab_ver_7.html ]
pre-chorus:distroted
|------------------------------------------------------------------------|
|------------------------------------------------------------------------|
|------------------------------------------------------------------------|
|-44444444-66666666-77777777-99999999-44444444-66666666-77777777---------|
|-22222222-44444444-55555555-77777777-22222222-44444444-55555555-2--222--|
|----------------------------------------------------------------0--000--|

chorus:distroted
|---------------------------------------------------------------------------------|x2
|---------------------------------------------------------------------------------|
|---------------------------------------------------------------------------------|
|-------------------------------------------------------------------7777-7--------|
|-4---4---4---4-2-2222--7---7---7---7-2-2222--4---4---4---4-2-2222--5555-5-2-222--|
|-2-0-2-0-2---2-0-0000--5-0-5-0-5---5-0-0000--2-0-2-0-2---2-0-0000---------0-000--|

pre-chorus
|--------------------------------------------------------------------------------|
|--------------------------------------------------------------------------------|
|--------------------------------------------------------------------------------|
|-44444444-66666666-77777777-99999999-44444444-66666666-77777777-99999999--------|
|-22222222-44444444-55555555-77777777-22222222-44444444-55555555-77777777--------|
|--------------------------------------------------------------------------------|

|------------------------------------------------------------------------------|
|------------------------------------------------------------------------------|
|------------------------------------------------------------------------------|
|-44444444-66666666-77777777-99999999-44444444-66666666-77777777---------------|
|-22222222-44444444-55555555-77777777-22222222-44444444-55555555-2-222--2-222--|
|----------------------------------------------------------------0-000--0-000--|


now this is where it plays half the chorus with no singing

|--------------------------------------------|
|--------------------------------------------|
|--------------------------------------------|
|--------------------------------------------|
|-4---4---4---4-2-2222--7---7---7---7-2-2222-|
|-2-0-2-0-2---2-0-0000--5-0-5-0-5---5-0-0000-|

now it plays the full chorus with singing
chorus:distroted
|---------------------------------------------------------------------------------|x2
|---------------------------------------------------------------------------------|
|---------------------------------------------------------------------------------|
|-------------------------------------------------------------------7777-7--------|
|-4---4---4---4-2-2222--7---7---7---7-2-2222--4---4---4---4-2-2222--5555-5-2-222--|
|-2-0-2-0-2---2-0-0000--5-0-5-0-5---5-0-0000--2-0-2-0-2---2-0-0000---------0-000--|

this is my first tab and i hope u like it
Comments