Three Days Grace - Wake Up Chords & Tabs

 

Wake Up Chords & Tabs

Three Days Grace Chords & Tabs

Version: 6 Type: Tab 0 ratings
1 star 2 stars 3 stars 4 stars 5 stars
comments

Wake Up Tab

   
Tabbist-Adam Conner
Tuning - Dropped D

The timing is messed up, you have to listen along with the
cd to figure it out along with the strum patterns.

Intro (Clean) 
e----------------------------------------------------------
B----------------------------------------------------------
G-----------------------2-1--------------------------------
D-------6---7---6-----2------------9-7----9-9-7-6----------
A-----4---4---4-----2------------7-------7-----------------
D-2/4-------------2----------2/7-------7-------------------

e---------------------------------------------------------
B---------------------------------------------------------
G-----------------------2-1-------------------------------
D-------6---7---6-----2-----------9-7----9-9-7-6----------
A-----4---4---4-----2-----------7-------7-----------------
D-2/4-------------2---------2/7-------7-------------------

Verse 1 (Clean)

e---------------------------------------------------------
B---------------------------------------------------------
G-----------------------2-1-------------------------------
D-------6---7---6-----2-----------9-7----9-9-7-6----------
A-----4---4---4-----2-----------7-------7-----------------
D-2/4-------------2---------2/7-------7-------------------

e---------------------------------------------------------
B---------------------------------------------------------
G-----------------------2-1-------------------------------
D-------6---7---6-----2-----------9-7----9-9-7-6----------
A-----4---4---4-----2-----------7-------7-----------------
D-2/4-------------2---------2/7-------7-------------------

e---------------------------------------------------------
B---------------------------------------------------------
G-----------------------2-1-------------------------------
D-------6---7---6-----2-----------9-7----9-9-7-6----------
A-----4---4---4-----2-----------7-------7-----------------
D-2/4-------------2---------2/7-------7-------------------

e---------------------------------------------------------
B---------------------------------------------------------
G-----------------------2-1-------------------------------
D-------6---7---6-----2-----------9-7----9-9-7-6----------
A-----4---4---4-----2-----------7-------7-----------------
D-2/4-------------2---------2/7-------7-------------------


Pre-Chorus (Distortion)
e--------------------------------------
B--------------------------------------
G-44444444-66666666-77777777-99999999--
D--------------------------------------
A-22222222-44444444-55555555-77777777--
D--------------------------------------

e--------------------------------------
B--------------------------------------
G-44444444-66666666-77777777-99999999--
D--------------------------------------
A-22222222-44444444-55555555-77777777--
D--------------------------------------

e----------
B----------
G-9999999--
D----------
A-7777777--
D----------

Chorus (Distortion)

e------------------------------------------------------
B------------------------------------------------------
G------------------------------------------------------
D-4-4-4-2-4--2-2-2-2-2--7-7-7-7-7-7-7-7--2-2-2-2-2-----
A-4-4-4-2-4--2-2-2-2-2--7-7-7-7-7-7-7-7--2-2-2-2-2-----
D-4-4-4-2-4--2-2-2-2-2--7-7-7-7-7-7-7-7--2-2-2-2-2-----

e------------------------------------------------------
B------------------------------------------------------
G------------6-6-6-6-6-6-6-6-7-7-7-7-7-7-7-7-----------
D-4-4-4-2-4--6-6-6-6-6-6-6-6-7-7-7-7-7-7-7-7-----------
A-4-4-4-2-4--4-4-4-4-4-4-4-4-5-5-5-5-5-5-5-5-----------
D-4-4-4-2-4--------------------------------------------

e------------------------------------------------------
B------------------------------------------------------
G------------------------------------------------------
D-4-4-4-2-4--2-2-2-2-2--7-7-7-7-7-7-7-7--2-2-2-2-2-----
A-4-4-4-2-4--2-2-2-2-2--7-7-7-7-7-7-7-7--2-2-2-2-2-----
D-4-4-4-2-4--2-2-2-2-2--7-7-7-7-7-7-7-7--2-2-2-2-2-----

e------------------------------------------------------
B------------------------------------------------------
G------------6-6-6-6-6-6-6-6-7-7-7-7-7-7-7-7-----------
D-4-4-4-2-4--6-6-6-6-6-6-6-6-7-7-7-7-7-7-7-7-----------
A-4-4-4-2-4--4-4-4-4-4-4-4-4-5-5-5-5-5-5-5-5-----------
D-4-4-4-2-4--------------------------------------------

Break (Clean)

e---------------------------------------------------------
B---------------------------------------------------------
G-----------------------2-1-------------------------------
D-------6---7---6-----2-----------9-7----9-9-7-6----------
A-----4---4---4-----2-----------7-------7-----------------
D-2/4-------------2---------2/7-------7-------------------

Verse 2 (Clean)

e---------------------------------------------------------
B---------------------------------------------------------
G-----------------------2-1-------------------------------
D-------6---7---6-----2-----------9-7----9-9-7-6----------
A-----4---4---4-----2-----------7-------7-----------------
D-2/4-------------2---------2/7-------7-------------------
[ Tab from: http://www.guitartabs.cc/tabs/t/three_days_grace/wake_up_tab_ver_6.html ]
e---------------------------------------------------------
B---------------------------------------------------------
G-----------------------2-1-------------------------------
D-------6---7---6-----2-----------9-7----9-9-7-6----------
A-----4---4---4-----2-----------7-------7-----------------
D-2/4-------------2---------2/7-------7-------------------

Pre-Chorus (Distortion)

e--------------------------------------
B--------------------------------------
G-44444444-66666666-77777777-99999999--
D--------------------------------------
A-22222222-44444444-55555555-77777777--
D--------------------------------------

e--------------------------------------
B--------------------------------------
G-44444444-66666666-77777777-99999999--
D--------------------------------------
A-22222222-44444444-55555555-77777777--
D--------------------------------------

e----------
B----------
G-9999999--
D----------
A-7777777--
D----------

Chorus (Distortion)

e------------------------------------------------------
B------------------------------------------------------
G------------------------------------------------------
D-4-4-4-2-4--2-2-2-2-2--7-7-7-7-7-7-7-7--2-2-2-2-2-----
A-4-4-4-2-4--2-2-2-2-2--7-7-7-7-7-7-7-7--2-2-2-2-2-----
D-4-4-4-2-4--2-2-2-2-2--7-7-7-7-7-7-7-7--2-2-2-2-2-----

e------------------------------------------------------
B------------------------------------------------------
G------------6-6-6-6-6-6-6-6-7-7-7-7-7-7-7-7-----------
D-4-4-4-2-4--6-6-6-6-6-6-6-6-7-7-7-7-7-7-7-7-2-2-2-2-2-
A-4-4-4-2-4--4-4-4-4-4-4-4-4-5-5-5-5-5-5-5-5-2-2-2-2-2-
D-4-4-4-2-4----------------------------------2-2-2-2-2-

e------------------------------------------------------
B------------------------------------------------------
G------------------------------------------------------
D-4-4-4-2-4--2-2-2-2-2--7-7-7-7-7-7-7-7--2-2-2-2-2-----
A-4-4-4-2-4--2-2-2-2-2--7-7-7-7-7-7-7-7--2-2-2-2-2-----
D-4-4-4-2-4--2-2-2-2-2--7-7-7-7-7-7-7-7--2-2-2-2-2-----

e------------------------------------------------------
B------------------------------------------------------
G------------6-6-6-6-6-6-6-6-7-7-7-7-7-7-7-7-----------
D-4-4-4-2-4--6-6-6-6-6-6-6-6-7-7-7-7-7-7-7-7--2-2-2-2-2
A-4-4-4-2-4--4-4-4-4-4-4-4-4-5-5-5-5-5-5-5-5--2-2-2-2-2
D-4-4-4-2-4-----------------------------------2-2-2-2-2

Pre-Chorus (Distortion)

e--------------------------------------
B--------------------------------------
G-44444444-66666666-77777777-99999999--
D--------------------------------------
A-22222222-44444444-55555555-77777777--
D--------------------------------------

e--------------------------------------
B--------------------------------------
G-44444444-66666666-77777777-99999999--
D--------------------------------------
A-22222222-44444444-55555555-77777777--
D--------------------------------------

e--------------------------------------
B--------------------------------------
G-44444444-66666666-77777777-99999999--
D--------------------------------------
A-22222222-44444444-55555555-77777777--
D--------------------------------------

e--------------------------------------
B--------------------------------------
G-44444444-66666666-77777777-99999999--
D--------------------------------------
A-22222222-44444444-55555555-77777777--
D--------------------------------------

e------------------
B------------------
G-9999999----------
D---------2-2-2-2-2
A-7777777-2-2-2-2-2
D---------2-2-2-2-2

Chorus (Distortion)

e------------------------------------------------------
B------------------------------------------------------
G------------------------------------------------------
D-4-4-4-2-4--2-2-2-2-2--7-7-7-7-7-7-7-7--2-2-2-2-2-----
A-4-4-4-2-4--2-2-2-2-2--7-7-7-7-7-7-7-7--2-2-2-2-2-----
D-4-4-4-2-4--2-2-2-2-2--7-7-7-7-7-7-7-7--2-2-2-2-2-----

e------------------------------------------------------
B------------------------------------------------------
G------------------------------------------------------
D-4-4-4-2-4--2-2-2-2-2--7-7-7-7-7-7-7-7--2-2-2-2-2-----
A-4-4-4-2-4--2-2-2-2-2--7-7-7-7-7-7-7-7--2-2-2-2-2-----
D-4-4-4-2-4--2-2-2-2-2--7-7-7-7-7-7-7-7--2-2-2-2-2-----

e------------------------------------------------------
B------------------------------------------------------
G------------6-6-6-6-6-6-6-6-7-7-7-7-7-7-7-7-----------
D-4-4-4-2-4--6-6-6-6-6-6-6-6-7-7-7-7-7-7-7-7--2-2-2-2-2
A-4-4-4-2-4--4-4-4-4-4-4-4-4-5-5-5-5-5-5-5-5--2-2-2-2-2
D-4-4-4-2-4-----------------------------------2-2-2-2-2

e------------------------------------------------------
B------------------------------------------------------
G------------------------------------------------------
D-4-4-4-2-4--2-2-2-2-2--7-7-7-7-7-7-7-7--2-2-2-2-2-----
A-4-4-4-2-4--2-2-2-2-2--7-7-7-7-7-7-7-7--2-2-2-2-2-----
D-4-4-4-2-4--2-2-2-2-2--7-7-7-7-7-7-7-7--2-2-2-2-2-----

e------------------------------------------------------
B------------------------------------------------------
G------------6-6-6-6-6-6-6-6-7-7-7-7-7-7-7-7-----------
D-4-4-4-2-4--6-6-6-6-6-6-6-6-7-7-7-7-7-7-7-7--2-2-2-2-2
A-4-4-4-2-4--4-4-4-4-4-4-4-4-5-5-5-5-5-5-5-5--2-2-2-2-2
D-4-4-4-2-4-----------------------------------2-2-2-2-2
Comments