Three Days Grace - Wake Up Chords & Tabs

 

Wake Up Chords & Tabs

Three Days Grace Chords & Tabs

Version: 4 Type: Tab 0 ratings
1 star 2 stars 3 stars 4 stars 5 stars
comments

Wake Up Tab

Tuning : Drop C

/ - slide up
\ - slide down
h - hammer-on
p - pull-off
~ - vibrato
x - mute

intro/verse (x6)
d|-------------------------------------------------------------------------|
A|-------------0----------------0-------------------0----------------------|
F|------------------------------------------------------------------6------|
C|--------8------8---8-------8------8---------11-------11---11----------9--|
G|------6---6------6-------4----------------9----9--------9----------------|
C|--4/6------------------4----------------9----------------------4----4---4|

pre chorus (x2)
d|--------------|
A|--------------|
F|--6--8--9--10-|
C|--6--8--9--10-|
G|--4--6--7--9--|
C|--------------|

pre chorus (second guitar)
d|--------------------------------------------------------------|
A|-9---10---12---14---9---10---12--10-10--12--14--10-10--12--14-|
F|--------------------------------------------------------------|
C|--------------------------------------------------------------|
G|--------------------------------------------------------------|
C|--------------------------------------------------------------|

chorus (x2)
d|---------------------------------------------------------------------------------|
A|---------------------------------------------------------------------------------|
F|---------------------------------------------------------8-8-8-8-9-9-9-9---------|
C|--4h6-6-4-6---6-4-4-4--4/9-9-9-9--9\4-4-4-4--4h6-6-4-6---8-8-8-8-9-9-9-9-4-4-4-4-|
G|--4h6-6-4-6---6-4-4-4--4/9-9-9-9--9\4-4-4-4--4h6-6-4-6---6-6-6-6-7-7-7-7-4-4-4-4-|
C|--4h6-6-4-6---6-4-4-4--4/9-9-9-9--9\4-4-4-4--4h6-6-4-6-------------------4-4-4-4-|

verse (x3)
d|-------------------------------------------------------------------------------|
A|-------------0----------------0-------------------0----------------------------|
F|------------------------------------------------------------------6------------|
C|--------8------8---8-------8------8---------11-------11---11----------9---8----|
G|------6---6------6-------4----------------9----9--------9----------------------|
C|--4/6------------------4----------------9----------------------4----4---4------|

pre chorus (x2)
d|--------------|
A|--------------|
F|--6--8--9--10-|
C|--6--8--9--10-|
G|--4--6--7--9--|
C|--------------|
[ Tab from: http://www.guitartabs.cc/tabs/t/three_days_grace/wake_up_tab_ver_4.html ]
pre chorus (second guitar)
d|--------------------------------------------------------------|
A|-9---10---12---14---9---10---12--10-10--12--14--10-10--12--14-|
F|--------------------------------------------------------------|
C|--------------------------------------------------------------|
G|--------------------------------------------------------------|
C|--------------------------------------------------------------|

chorus (x2)
d|---------------------------------------------------------------------------------|
A|---------------------------------------------------------------------------------|
F|---------------------------------------------------------8-8-8-8-9-9-9-9---------|
C|--4h6-6-4-6---6-4-4-4--4/9-9-9-9--9\4-4-4-4--4h6-6-4-6---8-8-8-8-9-9-9-9-4-4-4-4-|
G|--4h6-6-4-6---6-4-4-4--4/9-9-9-9--9\4-4-4-4--4h6-6-4-6---6-6-6-6-7-7-7-7-4-4-4-4-|
C|--4h6-6-4-6---6-4-4-4--4/9-9-9-9--9\4-4-4-4--4h6-6-4-6-------------------4-4-4-4-|

pre chorus (x4)
d|--------------|
A|--------------|
F|--6--8--9--10-|
C|--6--8--9--10-|
G|--4--6--7--9--|
C|--------------|

pre chorus (second guitar)
d|---------------------------------------------------------|
A|-9---10---12---14----9---10---12---14---9---10---12---14-|
F|---------------------------------------------------------|
C|---------------------------------------------------------|
G|---------------------------------------------------------|
C|---------------------------------------------------------|

d|-------------------------------------------------------------------------|
A|-9---10---12--10-10--12--14--10-10--12--14--10-10--12--14--10-10--12--14-|
F|-------------------------------------------------------------------------|
C|-------------------------------------------------------------------------|
G|-------------------------------------------------------------------------|
C|-------------------------------------------------------------------------|

chorus (x3) guitar once by its self
d|---------------------------------------------------------------------------------|
A|---------------------------------------------------------------------------------|
F|---------------------------------------------------------8-8-8-8-9-9-9-9---------|
C|--4h6-6-4-6---6-4-4-4--4/9-9-9-9--9\4-4-4-4--4h6-6-4-6---8-8-8-8-9-9-9-9-4-4-4-4-|
G|--4h6-6-4-6---6-4-4-4--4/9-9-9-9--9\4-4-4-4--4h6-6-4-6---6-6-6-6-7-7-7-7-4-4-4-4-|
C|--4h6-6-4-6---6-4-4-4--4/9-9-9-9--9\4-4-4-4--4h6-6-4-6-------------------4-4-4-4-|
Comments