Three Days Grace - Wake Up Chords & Tabs

 

Wake Up Chords & Tabs

Three Days Grace Chords & Tabs

Version: 2 Type: Tab 2 ratings
1 star 2 stars 3 stars 4 stars 5 stars
comments

Wake Up Tab

Intro]

       
E|---------------------------------|------------------------------------------
B|---------------------------------|------------------------------------------
G|----------------------------2--1-|------------------------------------------
D|--------6----7------6-----2------|--------9---7--9---9---9---7--6-----------
A|------4---4-----4-------2--------|------7---7------7------------------------
D|--2/4-------------4---2----------|--2/7----------------7---7----------------

[Verse 1]
I’m not sober all the time
You bring me down at least you try
Until we see this eye to eye
I don’t want you

[still playing intro]

[Verse 2] {Guitar continues playing Riff 1 twice}
I must be running out of luck
’Cause you’re just not drunk enough to f**k
And now I’ve had it up to here
And I don’t, I don’t want you

[Pre-chorus]
E|---------|---------|---------|---------------|
B|-5-5-5-5-|-7-7-7-7-|-8-8-8-8-|--10-10-10-10--|
G|-2-2-2-2-|-4-4-4-4-|-5-5-5-5-|---7--7--7--7--|
D|-2-2-2-2-|-4-4-4-4-|-5-5-5-5-|---7--7--7--7--|
A|---------|---------|---------|---------------|
D|---------|---------|---------|---------------|

E|---------|---------|---------|----------------|---------------|
B|-5-5-5-5-|-7-7-7-7-|-8-8-8-8-|-7-7-7-8---10---|-7-7-7-8---7---|
G|-2-2-2-2-|-4-4-4-4-|-5-5-5-5-|-7-7-7-7----7---|-7-7-7-7---7---|
D|-2-2-2-2-|-4-4-4-4-|-5-5-5-5-|-7-7-7-7----7---|-7-7-7-7---7---|
A|---------|---------|---------|----------------|---------------|
D|---------|---------|---------|----------------|---------------|
It took so long to say
You walked away from me
When I need you

[Chorus]
E|--------------|--------------|--------------|--------------|
B|--------------|--------------|--------------|--------------|
G|--------------|--------------|--------------|--------------|
D|-0-2-2-0-2----|-2-0--0--0--0-|-5-5-5-5-5----|-5-0--0--0--0-|
A|-0-2-2-0-2----|-2-0--0--0--0-|-5-5-5-5-5----|-5-0--0--0--0-|
D|-0-2-2-0-2----|-2-0--0--0--0-|-5-5-5-5-5----|-5-0--0--0--0-|
[ Tab from: http://www.guitartabs.cc/tabs/t/three_days_grace/wake_up_tab_ver_2.html ]
E|--------------|----------------|---------------|----------------|
B|--------------|----------------|---------------|----------------|
G|--------------|-4-4-4-4-4-4-5--|-(5)-5-5--5----|-7-7--7--7------|
D|-0-2-2-0-2----|-4-4-4-4-4-4-5--|-(5)-5-5--5----|-7-7--7--7--(0)-|
A|-0-2-2-0-2----|-2-2-2-2-2-2-3--|-(3)-3-3--3----|-5-5--5--5--(0)-|
D|-0-2-2-0-2----|----------------|---------------|------------(0)-|

Wake up, I’m pounding on the door
I’m not the man I was before
Where the hell are you when I need you
Wake up, I’m pounding on the door
I won’t hurt you anymore
Where the hell are you when I need you

[Guitar plays intro]
[Verse 3] {Guitar continues playing Riff 1 twice}
I’m not angry all the time
You push me down at least you try
Until we see this eye to eye
I don’t want you

[Pre-chorus]
[Chorus]


[Bridge]
|---------|---------|---------|-------------|
|-5-5-5-5-|-7-7-7-7-|-8-8-8-8-|-10-10-10-10-|
|-2-2-2-2-|-4-4-4-4-|-5-5-5-5-|--7--7--7--7-|
|-2-2-2-2-|-4-4-4-4-|-5-5-5-5-|--7--7--7--7-|
|---------|---------|---------|-------------|
|---------|---------|---------|-------------|

|---------|---------|---------|----------------|
|-5-5-5-5-|-7-7-7-7-|-8-8-8-8-|-7-7-7-8---10---|
|-2-2-2-2-|-4-4-4-4-|-5-5-5-5-|-7-7-7-7----7---|
|-2-2-2-2-|-4-4-4-4-|-5-5-5-5-|-7-7-7-7----7---|
|---------|---------|---------|----------------|
|---------|---------|---------|----------------|

{Guitar repeats Bridge]
It took so long to say
You walked away from me
When I need you

E||------------------|---------------|
B||--7-7-7-8---10----|-7-7-7-8---7---|
G||--7-7-7-7----7----|-7-7-7-7---7---|
D||--7-7-7-7----7----|-7-7-7-7---7---|
A||------------------|---------------|
D||------------------|---------------|


E|--------------|--------------|--------------|--------------|
B|--------------|--------------|--------------|--------------|
G|--------------|--------------|--------------|--------------|
D|-0-2-2-0-2----|-2-0--0--0--0-|-5-5-5-5-5----|-5-0--0--0--0-|
A|-0-2-2-0-2----|-2-0--0--0--0-|-5-5-5-5-5----|-5-0--0--0--0-|
D|-0-2-2-0-2----|-2-0--0--0--0-|-5-5-5-5-5----|-5-0--0--0--0-|

back to chorus
Comments