Three Days Grace - Wake Up (perfect) Chords & Tabs

 

Wake Up (perfect) Chords & Tabs

Three Days Grace Chords & Tabs

Version: 1 Type: Tab 0 ratings
1 star 2 stars 3 stars 4 stars 5 stars
comments

Wake Up (perfect) Tab

..................................................................... 




(TUNING)
String B tunes to A..................................................







INTRO 
E|-------------------------------------------------------------------| 
A|------------0-------------0---------------0------------------------| 
G|--------1----1---1------1---1----------4-----4---4----4---2---1~---| 
D|-------------------------------------------------------------------| 
A|----------------------2--------------------------------------------| 
E|-0h2--2---2----2---0-----------0h5---5---5-----5---0---0---0-------| 

VERSE 

E|-------------------------------------------------------------------| 
A|------------0-------------0---------------0------------------------| 
G|--------1----1---1------1---1----------4-----4---4----4---2---1~---| 
D|-------------------------------------------------------------------| 
A|----------------------2--------------------------------------------| 
E|-0h2--2---2----2---0-----------0h5---5---5-----5---0---0---0-------| 

PRE-CHORUS - Part 1 
[ Tab from: http://www.guitartabs.cc/tabs/t/three_days_grace/wake_up_perfect_tab.html ]
E|---------------------------------------------------| 
A|---------------------------------------------------| 
G|-7-------9---------10--------12--------------------| 
D|-7-8X----9-8X------10-8X-----12-8X-----------------| 
A|-7-------9---------10--------12--------------------| 
E|---------------------------------------------------| 

PRE-CHORUS - Part 2 

E|---------------------------------------------------| 
A|---------------------------------------------------| 
G|-7-----9-----10-----11-11-11-12-14--11-11-11-12-14-| 
D|-7-8x--9-8x--10-8x--9--9--9--10-12--9--9--9--10-12-| 
A|-7-----9-----10-----9--9--9--10-12--9--9--9--10-12-| 
E|---------------------------------------------------| 

CHORUS 

E|--------------------------------------------------| 
A|--------------------------------------------------| 
G|--------------------------------------------------| 
D|-0-2-2-0-2-----2-0-0-0-0--5-5-5-5-5-----5-0-0-0-0-| 
A|-0-2-2-0-2-----2-0-0-0-0--5-5-5-5-5-----5-0-0-0-0-| 
E|--------------------------------------------------| 

E|--------------------------------------------------| 
A|--------------------------------------------------| 
G|--------------------------------------------------| 
D|-0-2-2-0-2-----4-4-4-4---5-5-5-5--5-5---0-0--0-0--| 
A|-0-2-2-0-2-----2-2-2-2---3-3-3-3--3-3---0-0--0-0--| 
E|--------------------------------------------------| 

Comments