Three Days Grace - Take Me Under Chords & Tabs

 

Take Me Under Chords & Tabs

Three Days Grace Chords & Tabs

Version: 3 Type: Tab 0 ratings
1 star 2 stars 3 stars 4 stars 5 stars
comments

Take Me Under Tab

Three Days Grace - Take Me Under
Drop C   CGCFAD

Extremely accurate!!  More credit to "Hal and Leonard" publishing!!  Please rate!!

Guitar 1 - Barry Stock
Guitar 2 - Adam Gontier

INTRO - VERY Slight Distortion    4X
NOTE - Can be played with one guitar is desired.
Guitar 1
|---------------------------------------|
|---------------------------------------|
|---------------------------------------|
|----0-----0-----0------0-----0---------|
|--------------------3----3s5---s8------|
|--5---5-7---7-8---8--------------------|

Guitar 2 - VERY slight distortion
|-------7-----------7-------------------|
|---------8-----------8-----------8-----|
|---------------------------------------|
|---------------------------------------|
|--6-6---------6-6---------6-6----------|
|---------------------------------------|

PRE-CHORUS - Let ring out.
Guitar 1 - VERY slight distortion
|------------------------------------------------------------|
|------------------------------------------------------------|
|--------3--2--------2--0---------0--2--------0---0-2-3------|
|------3-----------1------------3-----------1----------------|
|----3-----------1------------3-----------1------------------|
|--3-----------1------------3-----------1--------------------|

VERSE   4X
Guitar 1 - Dist.
|---------------------------------------|
|---------------------------------------|
|---------------------------------------|
|----0-----0-----0------0-----0---------|
|--------------------3----3s5---s8------|
|--5---5-7---7-8---8--------------------|

Guitar 2 - Dist. and Slight Chorus - Let ring
|------------------------------------------------|
|-------0-----------0----------------------------|
|------------------------------------------------|
|----------3-----------3-------------------------|
|----1-----------1-------------------------------|
|--1-----------1---------------------------------|

PRE-CHORUS
Guitar 1 - Dist. and Slight Chorus
|----------------------------------------------------------|
|-----------0---------0--------------0---------------------|
|--------3--------------0---------0-----------0---0-2-3----|
|------3-----------1------------3-----------1--------------|
|----3-----------1------------3-----------1----------------|
|--3-----------1------------3-----------1------------------|

CHORUS   2X
Part 1
Guitars 1 and 2 - Distortion
|------------------------------------------------|
|------------------------------------------------|
|----------8---7-------------------8---7---------|
|--5---0---8---7---0-------5---0---8---7---0-----|  1X
|--5---0---6---5---0-------5---0---6---5---0-----|
|--5---0-----------0-------5---0-----------0-----|

CHORUS
Part 2
Guitar 1 - Dist.
|---------------------------------------------------|
|----------------------------8---8------------------|
|--10--10--10--10--10--------8---8---8---8---8------|
|--10--10--10--10--10--------8---8---8---8---8------|  1X
|--8---8---8---8---8---------6---6---6---6---6------|
|---------------------------------------------------|

Guitar 2 - Dist.
|---------------------------------------------------|
|---------------------------------------------------|
|--5---5---5---5---5---------3---3------------------|
|--3---3---3---3---3---------1---1---1---1---1------|
|--3---3---3---3---3---------1---1---1---1---1------|
|--3---3---3---3---3---------1---1---1---1---1------|

VERSE   3X
Guitar 1 - Dist.
|---------------------------------------|
|---------------------------------------|
|---------------------------------------|
|----0-----0-----0------0-----0---------|
|--------------------3----3s5---s8------|
|--5---5-7---7-8---8--------------------|

Guitar 2 - Dist. and Slight Chorus - Let ring
|------------------------------------------------|
|-------0-----------0----------------------------|
|------------------------------------------------|
|----------3-----------3-------------------------|
|----1-----------1-------------------------------|
|--1-----------1---------------------------------|

PRE-CHORUS
Guitar 1 - Dist. and Slight Chorus - Let ring
|----------------------------------------------------------|
|-----------0---------0--------------0---------------------|
|--------3--------------0---------0-----------0---0-2-3----|
|------3-----------1------------3-----------1--------------|
|----3-----------1------------3-----------1----------------|
|--3-----------1------------3-----------1------------------|

CHORUS   2X
Part 1
Guitars 1 and 2 - Distortion
|------------------------------------------------|
|------------------------------------------------|
|----------8---7-------------------8---7---------|
|--5---0---8---7---0-------5---0---8---7---0-----|  1X
|--5---0---6---5---0-------5---0---6---5---0-----|
|--5---0-----------0-------5---0-----------0-----|

CHORUS
Part 2
Guitar 1 - Dist.
|---------------------------------------------------|
|----------------------------8---8------------------|
|--10--10--10--10--10--------8---8---8---8--8-------|
|--10--10--10--10--10--------8---8---8---8--8-------|  1X
|--8---8---8---8---8---------6---6---6---6--6-------|
|---------------------------------------------------|
[ Tab from: http://www.guitartabs.cc/tabs/t/three_days_grace/take_me_under_tab_ver_3.html ]
Guitar 2 - Dist.
|---------------------------------------------------|
|---------------------------------------------------|
|--5---5---5---5---5---------3---3------------------|
|--3---3---3---3---3---------1---1---1---1---1------|
|--3---3---3---3---3---------1---1---1---1---1------|
|--3---3---3---3---3---------1---1---1---1---1------|

BRIDGE - Part 1   3X
Both Guitars - Distortion
|------------------------------------------------|
|------------------------------------------------|
|------------------------------------------------|
|------------------------------------------------|
|------------------------------------------------|
|--5-5-5-7-7-7-8-8-8-10-10-10-12-12-15-15--------|

|------------------------------------------------|
|------------------------------------------------|
|--14-14--14-14---14-14-14-14----14-14-14<-------|
|--15-15--15-15---15-15-15-15----15-15-15<-------|
|--13-13--13-13---13-13-13-13----13-13-13<-------|
|--13-13--13-13---13-13-13-13----13-13-13<-------|

BRIDGE - Part 2
Both Guitars - Distortion
|------------------------------------------------|
|------------------------------------------------|
|------------------------------------------------|
|------------------------------------------------|
|------------------------------------------------|
|--5-5-5-7-7-7-8-8-8-10-10-10-12-12-15-15--------|

|-----------------------------------------------------|
|-----------------------------------------------------|
|--14-14-14-14---14-14-14-14----14<-------------------|
|--15-15-15-15---15-15-15-15----15--------------------|-steady slide down
|--13-13-13-13---13-13-13-13----13<-------------------|
|--13-13-13-13---13-13-13-13----13<-------------------|

INTERLUDE
Both Guitars - Dist. - Let ring
|------------------------------------------------|
|-----------0---------0--------------0-----------|
|--------3--------------0---------0--------------|
|------3-----------1------------3----------------|
|----3-----------1------------3------------------|
|--3-----------1------------3--------------------|

Both Guitars - Dist. - Slight Palm Mute
|------------------------------------------------|
|------------------------------------------------|
|------------------------------------------------|
|------------------------------------------------|
|------------------------------------------------|
|--13-13-13-12-12-12-10-10-10-8-8-8-7----(7)-----|
                                    ^-- 1/2 bend
CHORUS  2X
Part 1
Guitars 1 and 2 - Distortion
|----------------------------------------------------|
|----------------------------------------------------|
|----------8---7---------------------8---7-----------|
|--5---0---8---7-------------5---0---8---7-----------|  1X
|--5---0---6---5---5-5-5-5---5---0---6---5---5-5-5---|
|--5---0-----------0-0-0-0---5---0-----------0-0-0---|
					   pm.....

CHORUS
Part 2
Guitar 1 - Dist.
|---------------------------------------------------|
|----------------------------8---8------------------|
|--10--10--10--10--10--------8---8---8---8--8-------|
|--10--10--10--10--10--------8---8---8---8--8-------|
|--8---8---8---8---8---------6---6---6---6--6-------|
|---------------------------------------------------|

Guitar 2 - Dist.
|---------------------------------------------------|
|---------------------------------------------------|
|--5---5---5---5---5---------3---3------------------|
|--3---3---3---3---3---------1---1---1---1---1------|
|--3---3---3---3---3---------1---1---1---1---1------|
|--3---3---3---3---3---------1---1---1---1---1------|

BRIDGE - Part 1   3X
Both Guitars - Distortion
|------------------------------------------------|
|------------------------------------------------|
|------------------------------------------------|
|------------------------------------------------|
|------------------------------------------------|
|--5-5-5-7-7-7-8-8-8-10-10-10-12-12-15-15--------|

|------------------------------------------------|
|------------------------------------------------|
|--14-14--14-14---14-14-14-14----14-14-14<-------|
|--15-15--15-15---15-15-15-15----15-15-15<-------|
|--13-13--13-13---13-13-13-13----13-13-13<-------|
|--13-13--13-13---13-13-13-13----13-13-13<-------|

BRIDGE - Part 2                1X
Both Guitars - Distortion
|------------------------------------------------|
|------------------------------------------------|
|------------------------------------------------|
|------------------------------------------------|
|------------------------------------------------|
|--5-5-5-7-7-7-8-8-8-10-10-10-12-12-15-15--------|

|-----------------------------------------------------|
|-----------------------------------------------------|
|--14-14-14-14---14-14-14-14----14<-------------------|
|--15-15-15-15---15-15-15-15----15--------------------|-steady slide down
|--13-13-13-13---13-13-13-13----13<-------------------|
|--13-13-13-13---13-13-13-13----13<-------------------|

OUTRO   1X
Guitar 1 - VERY slight distortion - Let ring
|------------------------------------------------------------|
|------------------------------------------------------------|
|--------3--2--------2--0--------0--2---------0---0-2-3------|
|------3-----------1------------3-----------1----------------|
|----3-----------1------------3-----------1------------------|
|--3-----------1------------3-----------1--------------------|
Comments