Three Days Grace - Take Me Under Chords & Tabs

 

Take Me Under Chords & Tabs

Three Days Grace Chords & Tabs

Version: 2 Type: Tab 0 ratings
1 star 2 stars 3 stars 4 stars 5 stars
comments

Take Me Under Tab

   
Tabbed by: Djzero9
Tuning: Dropped D, 1 step down. (C,G,C,F,A,D)
Well, this is my go at this song, I think Alex's might be right but I like the
way mine sounds ;) even though my guitar might be junk ;) or just my hearing :D

Intro (clean)
|--------------------------------------------------------------------
|--------------------------------------------------------------------
|--------------------------------------------------------------------
|-----0-----0----0------0-------0---------14-10-------14-10-------10-
|--------------------------------------------------------------------
|--5---5-7---7-8---8-10---10-12--15-13-13------13-13--------13-13----
                                                                (x4)
|----------------------------------------------------------
|----------------------------------------------------------
|--------3--2--------2--0--------0--2---------0--0-2-3-----
|------3-----------1------------3-----------1--------------
|----3-----------1------------3-----------1----------------
|--3-----------1------------3-----------1------------------


Verse (distorted)
|------------------------------------------------
|------------------------------------------------
|------------------------------------------------
|-----0-----0----0------0-------0----------------
|------------------------------------------------
|--5---5-7---7-8---8-10---10-12---15 13----------
						(x4)
|------------------------------------------------
|------------------------------------------------
|------------------------------------------------
|------2----------2------------------------------
|----1----------1--------------------------------
|--1----------1----------------------------------


Pre-chorus
|------------------------------------------------------------
|------------------------------------------------------------
|--------3--2--------2--0---------0--2--------0--0-2-3-------
|------3-----------1------------3-----------1----------------
|----3-----------1------------3-----------1------------------
|--3-----------1------------3-----------1--------------------

[ Tab from: http://www.guitartabs.cc/tabs/t/three_days_grace/take_me_under_tab_ver_2.html ]
Chorus
|----------------------------------------------------------
|----------------------------------------------------------
|----------------------------------------------------------
|--5---0---8---7---0------5---0---8---7---0----------------
|--5---0---8---7---0------5---0---8---7---0----------------
|--5---0---8---7---0------5---0---8---7---0----------------
							(x2)
|----------------------------------------------------------
|----------------------------------------------------------
|----------------------------------------------------------
|--3---3---3---3---3---------1---1---1---1---1-------------
|--3---3---3---3---3---------1---1---1---1---1-------------
|--3---3---3---3---3---------1---1---1---1---1-------------


Verse

Chorus

Bridge
|----------------------------------------------------------------
|----------------------------------------------------------------
|----------------------------------------------------------------
|--5-5-5-7-7-7-8-8-8-10-10-10-12-12-15-13-13-13-13---13-13-13-13-
|--5-5-5-7-7-7-8-8-8-10-10-10-12-12-15-13-13-13-13---13-13-13-13-
|--5-5-5-7-7-7-8-8-8-10-10-10-12-12-15-13-13-13-13---13-13-13-13-
						                  (x4)

Pre-Chorus
|-------------------------------------------------------------
|-------------------------------------------------------------
|--------3--2--------2--0---------0--2------------------------
|------3-----------1------------3-----------------------------
|----3-----------1------------3-------------------------------
|--3-----------1------------3---------------------------------

|------------------------------------------------
|------------------------------------------------
|------------------------------------------------
|--131313---121212---101010---888---7^-----------
|--131313---121212---101010---888---7^-----------
|--131313---121212---101010---888---7^-----------


Chorus
|------------------------------------------------------
|------------------------------------------------------
|------------------------------------------------------
|--5---0---8---7---0------5---0---8---7----*7-*7-*7----
|--5---0---8---7---0------5---0---8---7----*7-*7-*7----
|--5---0---8---7---0------5---0---8---7----*7-*7-*7----
					      pm...........        (x2)
|------------------------------------------------------
|------------------------------------------------------
|------------------------------------------------------
|--3---3---3---3---3---------1---1---1---1---1---------
|--3---3---3---3---3---------1---1---1---1---1---------
|--3---3---3---3---3---------1---1---1---1---1---------

Bridge 

Pre-chorus (clean)

comments to djzero9@hotmail.com
Comments