Three Days Grace - Take Me Under Chords & Tabs

 

Take Me Under Chords & Tabs

Three Days Grace Chords & Tabs

Version: 1 Type: Tab 0 ratings
1 star 2 stars 3 stars 4 stars 5 stars
comments

Take Me Under Tab

   
Tabbed by: Alex Pavlov
Tuning: Once again, Dropped D, 1 step down. (C,G,C,F,A,D)
Another Three Days Grace tab by me. This is a good song to learn. And since no
one else cares too much, Iíll get the whole album tabbed soon, for you lazy-asses
out there.

Intro (clean)
|------------------------------------------------
|------------------------------------------------
|------------------------------------------------
|-----0-----0----0------0-------0----0-----------
|----------------------------5----8--------------
|--5---5-7---7-8---8-10---10---------------------
                                                                      (x4)
|------------------------------------------------
|--------10-6-------10-6-------6-----------------
|------------------------------------------------
|------------------------------------------------
|--6-6---------6-6---------6-6-------------------
|------------------------------------------------

|------------------------------------------------------------
|------------------------------------------------------------
|--------3--2--------2--0--------0--2---------0--0-2-3-------
|------3-----------1------------3-----------1----------------
|----3-----------1------------3-----------1------------------
|--3-----------1------------3-----------1--------------------


Verse (distorted)
|------------------------------------------------
|------------------------------------------------
|------------------------------------------------
|-----0-----0----0------0-------0----0-----------
|----------------------------5----8--------------
|--5---5-7---7-8---8-10---10---------------------
						(x4)
|------------------------------------------------
|------------------------------------------------
|------------------------------------------------
|------2----------2------------------------------
|----1----------1--------------------------------
|--1----------1----------------------------------


Pre-chorus
|------------------------------------------------------------
|------------------------------------------------------------
|--------3--2--------2--0---------0--2--------0--0-2-3-------
|------3-----------1------------3-----------1----------------
|----3-----------1------------3-----------1------------------
|--3-----------1------------3-----------1--------------------

[ Tab from: http://www.guitartabs.cc/tabs/t/three_days_grace/take_me_under_tab.html ]
Chorus
|----------------------------------------------------------
|----------------------------------------------------------
|----------------------------------------------------------
|--5---0---13---12---0------5---0---13---12---0-----
|--5---0---13---12---0------5---0---13---12---0-----
|--5---0---13---12---0------5---0---13---12---0-----
							(x2)
|----------------------------1---1---------------------
|----------------------------4---4---------------------
|----------------------------3---3---------------------
|--3---3---3---3---3---------1---1---1---1---1---------
|--3---3---3---3---3---------1---1---1---1---1---------
|--3---3---3---3---3---------1---1---1---1---1---------


Verse

Chorus

Bridge
|-----------------------------------------------------
|-----------------------------------------------------
|-----------------------------------------------------
|-----------------------------------------------------
|-----------------------------5-5-8-8-----------------
|--5-5-5-7-7-7-8-8-8-10-10-10-------------------------
						     (x4)
|-------------------------------------------------------
|--10--10--10--10------10--10--10--10-----10------------
|--8---8---8---8-------8---8---8---8------8-------------
|--8---8---8---8-------8---8---8---8------8-------------
|--6---6---6---6-------6---6---6---6------6-------------
|-------------------------------------------------------


Pre-Chorus
|-------------------------------------------------------------
|-------------------------------------------------------------
|--------3--2--------2--0---------0--2------------------------
|------3-----------1------------3-----------------------------
|----3-----------1------------3-------------------------------
|--3-----------1------------3---------------------------------

|------------------------------------------------
|------------------------------------------------
|------------------------------------------------
|------------------------------------------------
|--6-6-6-5-5-5-----------------------------------
|--------------10-10-10-8-8-8-7^-----------------


Chorus
|-------------------------------------------------------------
|-------------------------------------------------------------
|-------------------------------------------------------------
|--5---0---13---12---0------5---0---13---12----*12-*12-*12----
|--5---0---13---12---0------5---0---13---12----*12-*12-*12----
|--5---0---13---12---0------5---0---13---12----*12-*12-*12----
					      pm...........        (x2)
|----------------------------1---1--------------------------
|----------------------------4---4--------------------------
|----------------------------3---3--------------------------
|--3---3---3---3---3---------1---1---1---1---1--------------
|--3---3---3---3---3---------1---1---1---1---1--------------
|--3---3---3---3---3---------1---1---1---1---1--------------

Bridge 

Pre-chorus (clean)

Again, add or e-mail me at dragin22@hotmail.com.
Comments