Three Days Grace - Take Me Under Chords & Tabs

 

Take Me Under Chords & Tabs

Three Days Grace Chords & Tabs

Version: 1 Type: Bass Tab 0 ratings
1 star 2 stars 3 stars 4 stars 5 stars
comments

Take Me Under Bass Tab

   
Tuning-C,G,C,F

Intro (clean)
|------------------------------------------------|
|------------------------------------------------|
|------------------------------------------------|
|--5---5-7---7-8---8-10---10---------------------|
                                                    (x4)
|------------------------------------------------|
|------------------------------------------------|
|--6-6---------6-6---------6-6-------------------|
|------------------------------------------------|

|------------------------------------------------------------|
|------3-----------1------------3-----------1----------------|
|----3-----------1------------3-----------1------------------|
|--3-----------1------------3-----------1--------------------|

Verse
|------------------------------------------------|
|------------------------------------------------|
|----------------------------5----8--------------|
|--5---5-7---7-8---8-10---10---------------------|
						(x4)
|------------------------------------------------|
|------2----------2------------------------------|
|----1----------1--------------------------------|
|--1----------1----------------------------------|

Pre-chorus
|------------------------------------------------------------|
|------3-----------1------------3-----------1----------------|
|----3-----------1------------3-----------1------------------|
|--3-----------1------------3-----------1--------------------|
[ Tab from: http://www.guitartabs.cc/tabs/t/three_days_grace/take_me_under_btab.html ]
Chorus
|---------------------------------------------------|
|---------------------------------------------------|
|---------------------------------------------------|
|--5---0---13---12---0------5---0---13---12---0-----|
				(x2)
|------------------------------------------------------|
|------------------------------------------------------|
|------------------------------------------------------|
|--3---3---3---3---3---------1---1---1---1---1---------|

Verse

Chorus

Bridge
|-----------------------------------------------------|
|-----------------------------------------------------|
|-----------------------------5-5-8-8-----------------|
|--5-5-5-7-7-7-8-8-8-10-10-10-------------------------|
                                                       (x4)
|-------------------------------------------------------|
|-------------------------------------------------------|
|--6---6---6---6-------6---6---6---6------6-------------|
|-------------------------------------------------------|

Pre-Chorus
|-------------------------------------------------------------|
|------3-----------1------------3-----------------------------|
|----3-----------1------------3-------------------------------|
|--3-----------1------------3---------------------------------|

|------------------------------------------------|
|------------------------------------------------|
|--6-6-6-5-5-5-----------------------------------|
|--------------10-10-10-8-8-8-7^-----------------|

Chorus
|-------------------------------------------------------------|
|-------------------------------------------------------------|
|-------------------------------------------------------------|
|--5---0---13---12---0------5---0---13---12----*12-*12-*12----|
	                                                       (x2)
|-----------------------------------------------------------|
|-----------------------------------------------------------|
|-----------------------------------------------------------|
|--3---3---3---3---3---------1---1---1---1---1--------------|

Bridge

Pre-chorus
Comments