Three Days Grace - Scared Chords & Tabs

 

Scared Chords & Tabs

Three Days Grace Chords & Tabs

Version: 1 Type: Tab 1 rating
1 star 2 stars 3 stars 4 stars 5 stars
comments

Scared Tab

Three Days Grace
"Scared"
Three Days Grace

transcribed by: Jim Fabry
corrections:    e-mail me at prophecyguitarman@yahoo.com

tuning:  Drop D
strings: DADGBE
time:    4/4

notes: "x" means a muted string


  intro:                              verse:
E| 6-6--6--66-5--|6-6--6--68-5-- | | 6---------5--|6--------85-- |
B|.8-8--8--88-7--|8-8--8--8107--.| |.--(slide)----|--(slide)----.|
G| --------------|-------------- | | -------------|------------- |
D|.--------------|--------------.| |.-------------|-------------.|
A| --------------|-------------- | | -------------|------------- |
D| --------------|-------------- | | -------------|------------- |

              3 times                          4 times

pre:
|-----------|-----------|6-6--6--66-5--|6-6--6--68-5--|
|-----------|-----------|8-8--8--88-7--|8-8--8--8107--|
|-----------|-----------|--------------|--------------|
|1--1--1--1-|8--8--8--8-|--------------|--------------|
|1--1--1--1-|8--8--8--8-|--------------|--------------|
|1--1--1--1-|8--8--8--8-|--------------|--------------|

[ Tab from: http://www.guitartabs.cc/tabs/t/three_days_grace/scared_tab.html ]
      |-----------|-----------|
      |-----------|-----------|
      |-----------|-----------|
      |1--1--1--1-|8--8--8--7-|
      |1--1--1--1-|8--8--8--7-|
      |1--1--1--1-|8--8--8--7-|


            1               2
            ______________ ________________
chorus:     |              |
| ----------|------------- |--------------|
|.----------|-------------.|------431-1---|
| ----------|------------- |---------3----|
|.5---0----1|------5-5-53-.|-----------3--|
| 5---0----1|------3-3-33- |--------------|
| 5---0----1|-----------3- |--------------|

         3 times

intro(2x)  /  verse(4x)  /  pre  /  chorus(3x) 2nd ending / intro(2x)

bridge:                      
|-----------|-----------|-----------|---------------|------------|
|-----------|-----------|12 measures|---------------|------------|
|-----------|-----------|-----------|---------------|------------|
|1--1--1--1-|8--8--8--8-|-----------|x-x-x-x-x-x-x-x|8-8-8-8-8---|
|1--1--1--1-|8--8--8--8-|-----------|x-x-x-x-x-x-x-x|8-8-8-8-8---|
|1--1--1--1-|8--8--8--8-|-----------|x-x-x-x-x-x-x-x|8-8-8-8-8---|


chorus (7x)  /  intro (2x)  /
Comments