Three Days Grace - Scared Chords & Tabs

 

Scared Chords & Tabs

Three Days Grace Chords & Tabs

Version: 1 Type: Bass Tab 0 ratings
1 star 2 stars 3 stars 4 stars 5 stars
comments

Scared Bass Tab

   
-------------------------------------------------------------------------------
			     Three Days Grace - Scared
-------------------------------------------------------------------------------

Tabbed By : MiltownBass

Great Three Days Grace song, easy and fun to play.
Please Rate!

Tuning: Drop-D

Intro
  (0:04)
G|----------------------|
D|----------------------|
A|---------------(4x)---|
D|-5-5-5-5-5-0----------|

Verse 
  (0:12)
G|----------------------|
D|----------------------|
A|---------------(8x)---|
D|-5-5-5-5-5-0----------|

Pre-Chorus
  (0:28)
G|-------------------------------------------------------------------|
D|-------------------------------------------------------------------|
A|-------------------------------------------------------------------|
D|-1-1-1-1-8-8-8-8---5-5-5-5-5-0---5-5-5-5-5-0---1-1-1-1-8-8-8-7-----|
[ Tab from: http://www.guitartabs.cc/tabs/t/three_days_grace/scared_btab.html ]
Chorus
  (0:40)
G|--------------------------------------------------------------------|
D|--------------------------------------------------------------------|
A|---------------------(3x)-----------------(play this the 4th time)--|
D|-5--0--1--10-10-3-4--------5--0--1----3-----------------------------|

Intro (0:57)
Verse (1:05)
Pre-Chorus (1:21)
Chorus (1:33)
Intro (1:49)

Bridge
  (1:58)
G|---------------------------------------------------------------------------|
D|---------------------------------------------------------------------------|
A|------------------(1x)---------(4x)-------------------(1x)---------(2x)----|
D|-1-1-1-1-8-8-8-3--------5---0--------1-1-1-1-8-8-8-8--------5---0----------|

G|---------------------------------------------------------------------------|
D|---------------------------------------------------------------------------|
A|------------------(1x)---------(2x)----------------------------------------|
D|-1-1-1-1-8-8-8-8--------5---0--------1-1-1-1-1-1-1-1-8-8-8-8-8-------------|

Chorus 2x (2:30)
Intro (3:03)

===============================================================================
Comments