Three Days Grace - Overrated Chords & Tabs

 

Overrated Chords & Tabs

Three Days Grace Chords & Tabs

Version: 3 Type: Tab 0 ratings
1 star 2 stars 3 stars 4 stars 5 stars
comments

Overrated Tab

Band- Three Days Grace
Song- Overrated

tuning:  Drop C
strings: CGCFAD
time:    4/4


intro:   
D| ----------------|---------------- |
A|.----------------|----------------.|
F| ----------------|---------------- |
C|.----------------|----------------.|
G| --------8-7-0-10|8-7------------- |
C| 0-8-7-0---------|----7-10-8-7-8-- |
               (4 times)


verse:
| -----------|-----------|-----------|------------ |
|.-----------|-----------|-----------|------------.|
| -------2---|2----------|-----------|------------ |
|.0------0---|0----------|5------5---|3-----------.|
| 0----------|3----------|7------7---|5-------0-3- |
| 0----------|-----------|5------5---|3-----3----- |
                     (6 times)


chorus:
| -------------|-------------|-------------|------------ |
|.-------------|-------------|-------------|------------.|
| -------------|-------------|-------------|------------ |
|.0------0-----|10-----10----|5------5-----|3-----------.|
| 0------0-----|10-----10----|5------5-----|3--------0-3 |
| 0------0-----|10-----10----|5------5-----|3------3---- |
                         (2 times)


[ Tab from: http://www.guitartabs.cc/tabs/t/three_days_grace/overrated_tab_ver_3.html ]
before verse 2:
|-------0---|5----------|0-1-0-1-0-1-0-1|0-1-0-1-0-1-0-1|
|-----------|-----------|---------------|---------------|
|-----------|-----------|---------------|---------------|
|0----------|-----------|---------------|---------------|
|0----------|-----------|---------------|---------------|
|0----------|-----------|---------------|---------------|



verse (4x)  /  chorus (4x)  /  


bridge:
|-----|-----|-----|-----|----------------|---------------|----------------|-------------|
|-----|-----|-----|-----|----------------|---------------|----------------|-------------|
|-----|-----|-----|-----|----------------|---------------|----------------|-------------|
|0----|-----|-----|-----|----------------|---------------|----------------|-------10--8-|
|0----|-----|-----|-----|--------8-7-0-10|8-7------------|--------8-7-0-10|8-7----10--8-|
|0----|-----|-----|-----|0-8-7-0---------|----7-10-8-7-8-|0-8-7-0---------|-------10--8-|



intro (4x)  /  chorus (4x)  /    |----------|
                                 |----------|
                                 |----------|
                                 |0---------|
                                 |0---------|
                                 |0---------|
Comments