Three Days Grace - Overrated Chords & Tabs

 

Overrated Chords & Tabs

Three Days Grace Chords & Tabs

Version: 1 Type: Bass Tab 0 ratings
1 star 2 stars 3 stars 4 stars 5 stars
comments

Overrated Bass Tab

   
Tuning-C,G,C,F

Intro
|---------------------------------------------------|
|---------------------------------------------------|
|-----------8-7----10-8-7---------------------------|
|--0-8-7-0------7----------7-10-8-7-8---------------|


Verse (clean)(x5)
|----------------------------------------------------------------------|
|----------------------------------------------------------------------|
|5---5---3-----7---7/-5-----0-3/-7------3----7--7/-5-------0-3---------|
|0------------------------3------0-----------------------3-------------|

Chorus
|--------------------------------------------|
|--------------------------------------------|
|-----------------------------0-3------------|
|--0-0---10-10---5-5---3----3----------------|

[ Tab from: http://www.guitartabs.cc/tabs/t/three_days_grace/overrated_btab.html ]
Pre-verse
|---------------------------------------------|
|---------------------------------------------|
|---------------------------------------------|
|--0------------------------------------------|


Verse (x4)
|----------------------------------------------------------------------|
|----------------------------------------------------------------------|
|5---5---3-----7---7/-5-----0-3/-7-------3----7---7/-5-------0-3-------|
|0------------------------3------0------------------------3------------|

Chorus

Bridge
|---------------------------------------------|
|---------------------------------------------|
|---------------------------------------------|
|--0------------------------------------------|

Intro Riff

Chorus

Outro
|---------------------------------------------------------------------------|
|---------------------------------------------------------------------------|
|---------------------------------------------------------------------------|
|--0--0--0--0--0--0--0--0--0--0--0--0--0--0--0--0--0--0--0--0---------------|
Comments