Three Days Grace - Now Or Never Chords & Tabs

 

Now Or Never Chords & Tabs

Three Days Grace Chords & Tabs

Version: 2 Type: Tab 0 ratings
1 star 2 stars 3 stars 4 stars 5 stars
comments

Now Or Never Tab

Now Or Never - Three Days Grace
Drop D Tuning
Tabbed by yoyojoe
Intro
(Clean)
|---------------|
|---------------|
|---------------|
|-6---4---6---4-|
|-4---2---4---2-|
|-4---2---4---2-|

(Distorted)
|--------------------|    |----------------|
|--------------------|    |----------------|
|--------------------| X3 |----------------|
|-9-9-0--0-3-3-3-0-7-|    |-5-5-5-5-7...---|
|-9-9-0--0-3-3-3-0-7-|    |-5-5-5-5-5...---|
|-9-9-0--0-3-3-3-0-7-|    |-5-5-5-5-5...---|
[ Tab from: http://www.guitartabs.cc/tabs/t/three_days_grace/now_or_never_tab_ver_2.html ]
Verse
(Distorted)
|----------------------------------|
|----------------------------------|
|----------------------------------|
|-6...4...6...5...7...6...5...6...-|
|-4...2...4...3...5...4...3...4...-|
|-4...2...4...3...5...4...3...4...-|

Chorus
(Distorted)
|--------------------|    |-----------------|
|--------------------|    |-----------------|
|--------------------| X3 |-----------------|
|-9-9-0--0-3-3-3-0-7-|    |-5-5-5-5-7-7-7-7-|
|-9-9-0--0-3-3-3-0-7-|    |-5-5-5-5-7-7-7-7-|
|-9-9-0--0-3-3-3-0-7-|    |-5-5-5-5-7-7-7-7-|

|--------------------|    |----------------|
|--------------------|    |----------------|
|--------------------| X3 |----------------|
|-9-9-0--0-3-3-3-0-7-|    |-5-5-5-5-7...---|
|-9-9-0--0-3-3-3-0-7-|    |-5-5-5-5-5...---|
|-9-9-0--0-3-3-3-0-7-|    |-5-5-5-5-5...---|

In the third verse the first part of the intro is played then it goes back to the chorus.
Comments