Three Days Grace - Now Or Never Chords & Tabs

 

Now Or Never Chords & Tabs

Three Days Grace Chords & Tabs

Version: 1 Type: Tab 1 rating
1 star 2 stars 3 stars 4 stars 5 stars
comments

Now Or Never Tab

   
Now or never-Three Days Grace
Tabbed by Donald Coleman

Drop D:
D A D G B E

Chords:
e-------------------------------0-----------
b-------------------------------0-----------
g-------------------4-----------2-----------
d-11------5----0----4----4------2------9----
a--9------5----0----2----2------0------7----
d--9------5----0---------2-------------7----
  Bsus2   G5   D5   B5   Esus2  Asus   Asus2


Intro:

Bsus2                         D5
in this time, are we loving   or do we sit here wondering

Esus2                         G5
why this world isn’t turning around it’s now or never
[ Tab from: http://www.guitartabs.cc/tabs/t/three_days_grace/now_or_never_tab.html ]
  B5    D5     E5         G5          F#5         Asus
e-----------------------------       -------------0----------
b-----------------------------       -------------0----------
g-4--4------------------------       -------------2----------
d-4--4------------------------       -------------2----------
a-2--2--0----0h2-2----2---5--- (x3)  -4--4--4--4--0----------
d-------0----0h2-2----2---5---       -4--4--4--4-------------

Verses:

G5           D5             Esus2        Asus2
we have no use, for the truth, now’s the time for us to lose

G5             D5                         Esus2
who we are and how we tried, taking every step in stride

                  Asus2
it’s now or never to decide

Chorus:

B5      D5    E5     G5         B5    D5    E5       G5
in this time, are we loving ... or do we    sit here wondering

B5       D5      E5    G5       F#5        Asus2
why this world   isn’t turning around it’s now or never
 
B5      D5     E5     G5        B5    D5    E5       G5
in this world, are we learning  or do we    sit here yearning

B5       D5      E5      G5       F#5        Asus2
for this world   to stop turning around it’s now or never
Comments