Three Days Grace - Let You Down Chords & Tabs

 

Let You Down Chords & Tabs

Three Days Grace Chords & Tabs

Version: 1 Type: Tab 1 rating
1 star 2 stars 3 stars 4 stars 5 stars
comments

Let You Down Tab

Three Days Grace
"Let You Down"
Three Days Grace

transcribed by: Jim Fabry
corrections:    e-mail me at prophecyguitarman@yahoo.com

tuning:  Drop C
strings: CGCFAE
time:    6/8


intro:   
E|--------------|--------------|--------------|--------------|
A|--------------|--------------|--------------|--------------|
F|--------------|--------------|--------------|--------------|
C|--------------|--------------|--------------|--------------|
G|--------------|--------------|--------------|--------------|
C|--------------|--------------|--------------|--------------|


verse:
| -----------|-----------|-----------|-----------|-----------|-----------|
|.-----------|-----------|-----------|-----------|-----------|-----------|
| ------2----|----2-----2|------2----|----2-----2|------2----|----2-----2|
|.0--0-------|--0-----0--|0--0-------|--0-----0--|0--0-------|--0-----0--|
| -----------|3-----1----|-----------|3-----1----|-----------|3-----1----|
| -----------|-----------|-----------|-----------|-----------|-----------|

                    2 times

     |------------|----------- |
     |------------|-----------.|
     |------------|----2------ |
     |------------|--0--------.|
     |1-----------|3---------- |
     |------------|----------- |


chorus:
|-----------|-----------|-----------|-----------|-----------|-----------|
|-----------|-----------|-----------|-----------|-----------|-----------|
|-----------|-----------|-----------|-----------|-----------|-----------|
|0-----3-0-3|-----8-7-10|0-----3-0-3|-----8-7-10|0-----3-0-3|-----8-7-10|
|0-----3-0-3|-----8-7-10|0-----3-0-3|-----8-7-10|0-----3-0-3|-----8-7-10|
|0-----3-0-3|-----8-7-10|0-----3-0-3|-----8-7-10|0-----3-0-3|-----8-7-10|

[ Tab from: http://www.guitartabs.cc/tabs/t/three_days_grace/let_you_down_tab.html ]
     |-----------|-----------------|
     |-----------|-----------------|
     |-----------|-----------------|
     |8-8-8-8-8-8|10-10-10-10-10-10|
     |8-8-8-8-8-8|10-10-10-10-10-10|
     |8-8-8-8-8-8|10-10-10-10-10-10|


before verse 2:
|-----------|-----------|-----------|-----------|
|-----------|-----------|-----------|-----------|
|-----------|-----------|-----------|-----------|
|0----------|-----------|-----------|-----------|
|0----------|-----------|-----------|-----------|
|0----------|-----------|-----------|-----------|



verse (1x)  /  chorus (2x)  /  


bridge:
| ----------|-----15---|-----19---|----------- |
|.-----19---|14--------|15--------|-----------.|
| 16--------|----------|----------|----------- |
|.----------|----------|----------|0-9-7-5-4-0.|
| ----------|----------|----------|0-9-7-5-4-0 |
| ----------|----------|----------|0-9-7-5-4-0 |

                     2 times

| -----------|-----------|-----------|----------- |
|.-----------|-----------|-----------|-----------.|
| -----------|-----------|-----------|----------- |
|.9-9-9-9-9-9|4-4-4-4-4-4|5-5-5-5-5-5|0-9-7-5-4-0.|
| 9-9-9-9-9-9|4-4-4-4-4-4|5-5-5-5-5-5|0-9-7-5-4-0 |
| 9-9-9-9-9-9|4-4-4-4-4-4|5-5-5-5-5-5|0-9-7-5-4-0 |

                       2 times

|-----------|-----------|-----------|-----------|
|-----------|-----------|-----------|-----------|
|-----------|-----------|-----------|-----------|
|9-9-9-9-9-9|4-4-4-4-4-4|5-5-5-5-5-5|5-5-5-5-5-5|
|9-9-9-9-9-9|4-4-4-4-4-4|5-5-5-5-5-5|5-5-5-5-5-5|
|9-9-9-9-9-9|4-4-4-4-4-4|5-5-5-5-5-5|5-5-5-5-5-5|


|-----------|-----------|-----------|-----------|
|-----------|-----------|-----------|-----------|
|-----------|-----------|-----------|-----------|
|0----------|-----------|0----------|-----8-7-10|
|0----------|-----------|0----------|-----8-7-10|
|0----------|-----------|0----------|-----8-7-10|


chorus (2x)  /    |----------|
                  |----------|
                  |----------|
                  |0---------|    [fade out]
                  |0---------|
                  |0---------|
Comments