Three Days Grace - Let You Down Chords & Tabs

 

Let You Down Chords & Tabs

Three Days Grace Chords & Tabs

Version: 2 Type: Bass Tab 0 ratings
1 star 2 stars 3 stars 4 stars 5 stars
comments

Let You Down Bass Tab

   
-----------------------------------------------------------------------------
			   LET YOU DOWN - Three Days Grace
-----------------------------------------------------------------------------

Tabbed By : gr33n_dayw49
e-mail: gr33n_dayw49@hotmail.com

Tuning: (C,G,C,F)
  
  INTRO
F|------------------------------------------------------------|
C|------------------------------------------------------------|
G|------------------------------------------------------------|
C|-0-0-0-0-0-0-0--0-0-0-0-0-0-0--0-0-0-0-0-0-0--0-0-0-0-0-0-0-|

  VERSE  (x2)
F|------------------------------------------------------------|
C|------------------------------------------------------------|
G|------------------------------------------------------------|
C|-0-0-0-0-0-0-0--0-0-0-0-0-0-0--0-0-0-0-0-0-0--0-0-0-0-0-0-0-|
  VERSE2 
F|----------------------------------------------|
C|----------------------------------------------|
G|-----3-1------3-1------3-1------3-1-1-1-3-3---|
C|-0-0------0-0------0-0------0-0---------------|

  CHORUS 
F|----------------------|  \
C|----------------------|   \   X 3
G|----------------------|   /  
C|-0--0-3-0-3---8-7-10--|  /
   
  On fourth time play...
F|--------------------------------|
C|--------------------------------|
G|--------------------------------|
C|-8-8-8-8-8-8-10-10-10-10-10-10--|

  VERSE
F|------------------------------------------------------------|
C|------------------------------------------------------------|
G|------------------------------------------------------------|
C|-0-0-0-0-0-0-0--0-0-0-0-0-0-0--0-0-0-0-0-0-0--0-0-0-0-0-0-0-|
  VERSE2 
F|----------------------------------------------|
C|----------------------------------------------|
G|-----3-1------3-1------3-1------3-1-1-1-3-3---|
C|-0-0------0-0------0-0------0-0---------------|

CHORUS 
F|----------------------|  \
C|----------------------|   \   X 3
G|----------------------|   /  
C|-0--0-3-0-3---8-7-10--|  /
[ Tab from: http://www.guitartabs.cc/tabs/t/three_days_grace/let_you_down_btab_ver_2.html ]
On fourth time play...
F|--------------------------------|
C|--------------------------------|
G|--------------------------------|
C|-8-8-8-8-8-8-10-10-10-10-10-10--|
  
  CHORUS 2
F|----------------------------|  \
C|----------------------------|   \  X 3
G|----------------------------|   /
C|-0--0-3-0-3-x-x--x-8-7-10---|  /

On fourth time play...
F|--------------------------------|
C|--------------------------------|
G|--------------------------------|
C|-8-8-8-8-8-8-10-10-10-10-10-10--|

 ...INTERLUDE... 

 | PART 1  (x2) |  PART 2  (x4)           
F|--------------|-------------------------|
C|--------------|-------------------------|
G|--------------|-------------------------|
C|-0-9-7-5-4-0--|-9~--4~--5~--0-9-7-5-4-0-|
                              ^ Don't play this on 4th time.
  PRE CHORUS
F|----------------------------|
C|----------------------------|
G|----------------------------|
C|-0~----0~----------8-7-10---|

 CHORUS 
F|----------------------|  \
C|----------------------|   \   X 3
G|----------------------|   /  
C|-0--0-3-0-3---8-7-10--|  /

 On fourth time play...
F|--------------------------------|
C|--------------------------------|
G|--------------------------------|
C|-8-8-8-8-8-8-10-10-10-10-10-10--|
  
  CHORUS 2
F|----------------------------|  \
C|----------------------------|   \  X 3
G|----------------------------|   /
C|-0--0-3-0-3-x-x--x-8-7-10---|  /

 On fourth time play...
F|--------------------------------|
C|--------------------------------|
G|--------------------------------|
C|-8-8-8-8-8-8-10-10-10-10-10-10--|

  OUTRO (x2)
F|------------------------------------------------------------|
C|------------------------------------------------------------|
G|------------------------------------------------------------|
C|-0-0-0-0-0-0-0--0-0-0-0-0-0-0--0-0-0-0-0-0-0--0-0-0-0-0-0-0-|


| /  slide up
| \  slide down
| h  hammer-on
| p  pull-off
| ~  vibrato
| +  harmonic
| x  Mute note
=============================================================================
Comments