Three Days Grace - Just Like You Chords & Tabs

 

Just Like You Chords & Tabs

Three Days Grace Chords & Tabs

Version: 8 Type: Tab 0 ratings
1 star 2 stars 3 stars 4 stars 5 stars
comments

Just Like You Tab

-------------------------------------------------------------------------
Song: Just Like You
Band: Three Days Grace

Tabbed by: Anthony Cannon
Email: painless_once_death@yahoo.com

Tuning: Dropped D
*Note: I wrote this with the low E/6th string on the top.




(INTRO/VERSE 1 - played 3 times)
E|-9-7-4-0-9-9---9-7-4-0-9-9---9-7-4-0-9-9---5--[7-7]-7-[7-7]-7------------|
A|-9-7-4-0-9-9---9-7-4-0-9-9---9-7-4-0-9-9---5--[7-7]-7-[7-7]-7------------|
D|-9-7-4-0-9-9---9-7-4-0-9-9---9-7-4-0-9-9---7--[9-9]-9-[9-9]-9------------|
G|-------------------------------------------------------------------------|
B|-------------------------------------------------------------------------|
e|-------------------------------------------------------------------------|


(PRE-CHORUS - played once)
E|-4--5--4-----[5-5-5-5]---[7-7]-7-[7-7]-7---------------------------------|
A|-4--5--4-----[5-5-5-5]---[7-7]-7-[7-7]-7---------------------------------|
D|-4--5--4-----[5-5-5-5]---[9-9]-9-[9-9]-9---------------------------------|
G|-6--7--6-----[7-7-7-7]---------------------------------------------------|
B|-------------------------------------------------------------------------|
e|-------------------------------------------------------------------------|


(CHORUS/first half)
E|-9----------0----------7----------10-------------------------------------|
A|-9----------0----------7----------10-------------------------------------|
D|-9----------0----------7----------10-------------------------------------|
G|-------------------------------------------------------------------------|
B|-------------------------------------------------------------------------|
e|-------------------------------------------------------------------------|

(CHORUS/second half)
E|-9----------0----------5----------[7-7]-7-[7-7]-7------------------------|
A|-9----------0----------5----------[7-7]-7-[7-7]-7------------------------|
D|-9----------0----------7----------[9-9]-9-[9-9]-9------------------------|
G|-------------------------------------------------------------------------|
B|-------------------------------------------------------------------------|
e|-------------------------------------------------------------------------|


(VERSE 2 - played twice)
E|-9-7-4-0-9-9---9-7-4-0-9-9---9-7-4-0-9-9---5--[7-7]-7-[7-7]-7------------|
A|-9-7-4-0-9-9---9-7-4-0-9-9---9-7-4-0-9-9---5--[7-7]-7-[7-7]-7------------|
D|-9-7-4-0-9-9---9-7-4-0-9-9---9-7-4-0-9-9---7--[9-9]-9-[9-9]-9------------|
G|-------------------------------------------------------------------------|
B|-------------------------------------------------------------------------|
e|-------------------------------------------------------------------------|


(PRE-CHORUS - played once)
E|-4--5--4-----[5-5-5-5]---[7-7]-7-[7-7]-7---------------------------------|
A|-4--5--4-----[5-5-5-5]---[7-7]-7-[7-7]-7---------------------------------|
D|-4--5--4-----[5-5-5-5]---[9-9]-9-[9-9]-9---------------------------------|
G|-6--7--6-----[7-7-7-7]---------------------------------------------------|
B|-------------------------------------------------------------------------|
e|-------------------------------------------------------------------------|


[ Tab from: http://www.guitartabs.cc/tabs/t/three_days_grace/just_like_you_tab_ver_8.html ]
(CHORUS/first half)
E|-9----------0----------7----------10-------------------------------------|
A|-9----------0----------7----------10-------------------------------------|
D|-9----------0----------7----------10-------------------------------------|
G|-------------------------------------------------------------------------|
B|-------------------------------------------------------------------------|
e|-------------------------------------------------------------------------|

(CHORUS/second half)
E|-9----------0----------5----------[7-7]-7-[7-7]-7------------------------|
A|-9----------0----------5----------[7-7]-7-[7-7]-7------------------------|
D|-9----------0----------7----------[9-9]-9-[9-9]-9------------------------|
G|-------------------------------------------------------------------------|
B|-------------------------------------------------------------------------|
e|-------------------------------------------------------------------------|

(VERSE 3 - part A/play A & B together twice)
E|-5-5--5-5-5--5--0--0-0-0-------9-7-4-0-----------------------------------|
A|-5-5--5-5-5--5--0--0-0-0-------------------------------------------------|
D|-5-5--5-5-5--5--0--0-0-0-------------------------------------------------|
G|-7-7--7-7-7--7-----------------------------------------------------------|
B|-------------------------------------------------------------------------|
e|-------------------------------------------------------------------------|
 |
(Verse 3 - part B)
E|-2-2--2-2-2--2--7--7-7-7-------9-7-4-0-----------------------------------|
A|-2-2--2-2-2--2--7--7-7-7-------------------------------------------------|
D|-2-2--2-2-2--2--7--7-7-7-------------------------------------------------|
G|-------------------------------------------------------------------------|
B|-------------------------------------------------------------------------|
e|-------------------------------------------------------------------------|


(PRE-CHORUS - played once)
E|-4--5--4-----[5-5-5-5]---[7-7]-7-[7-7]-7---------------------------------|
A|-4--5--4-----[5-5-5-5]---[7-7]-7-[7-7]-7---------------------------------|
D|-4--5--4-----[5-5-5-5]---[9-9]-9-[9-9]-9---------------------------------|
G|-6--7--6-----[7-7-7-7]---------------------------------------------------|
B|-------------------------------------------------------------------------|
e|-------------------------------------------------------------------------|


(CHORUS/first half)
E|-9----------0----------7----------10-------------------------------------|
A|-9----------0----------7----------10-------------------------------------|
D|-9----------0----------7----------10-------------------------------------|
G|-------------------------------------------------------------------------|
B|-------------------------------------------------------------------------|
e|-------------------------------------------------------------------------|
 |
(CHORUS/second half)
E|-9----------0----------5----------[7-7]-7-[7-7]-7------------------------|
A|-9----------0----------5----------[7-7]-7-[7-7]-7------------------------|
D|-9----------0----------7----------[9-9]-9-[9-9]-9------------------------|
G|-------------------------------------------------------------------------|
B|-------------------------------------------------------------------------|
e|-------------------------------------------------------------------------|


(VERSE - played once)
E|-9-7-4-0-9-9---9-7-4-0-9-9---9-7-4-0-9-9---5--[7-7]-7-[7-7]-7------------|
A|-9-7-4-0-9-9---9-7-4-0-9-9---9-7-4-0-9-9---5--[7-7]-7-[7-7]-7------------|
D|-9-7-4-0-9-9---9-7-4-0-9-9---9-7-4-0-9-9---7--[9-9]-9-[9-9]-9------------|
G|-------------------------------------------------------------------------|
B|-------------------------------------------------------------------------|
e|-------------------------------------------------------------------------|




 []  Mute note
============================================================================
Comments