Three Days Grace - Just Like You Chords & Tabs

 

Just Like You Chords & Tabs

Three Days Grace Chords & Tabs

Version: 6 Type: Tab 0 ratings
1 star 2 stars 3 stars 4 stars 5 stars
comments

Just Like You Tab

tuning
1Eb
2Bb
3Gb
4Db
5Ab
6Db


intro

-------------------------|
-------------------------|
-------------------------|
-9-7-4-0-9-9-------------|
-9-7-4-0-9-9-------------|
-9-7-4-0-9-9-------------|
                              keep repeating

-------------------------|
-------------------------|
7------9-----9-----------|
7------9-----9-----------|
5------7-----7-----------|
5--7-7-7-7-7-7-----------|


-------------------------|
-2-------3-----2---------|
-2-------2-----2---------|
-0-------0-----0---------|
-5-------5-----5---------|
-4-------5-----4---------|

harm.   --   --
-------------------------|
-------------------------|
-----------9---9---------|
-----------9---9---------|
-----------7----7--------|
5-5-5-5-77-7-77-7--------|


-------------------------|
-------------------------|
-------------------------|
-9---9---9-0---0---0-----|
-9---9---9-0---0---0-----|
-9---9---9-0---0---0-----|

[ Tab from: http://www.guitartabs.cc/tabs/t/three_days_grace/just_like_you_tab_ver_6.html ]
-------------------------|
-------------------------|
-------------------------|
-7---7---7-10---10---10--|
-7---7---7-10---10---10--|
-7---7---7-10---10---10--|

bridge
-------------------------|
-------------------------|
---7-7-------------------|
-7-7-7-7-7--7--0---0--0--|
-5-5-5-5-5--7--0---0--0--|
-5-----5-5--7--0---0--0--|


----------------------------------------|
----------------------------------------|
----------------------------------------|
-9-7-4-0---2---2-2--0--7-7--7-9-7-4-0---|
-9-7-4-0---2---2-2--0--7-7--7-9-7-4-0---|
-9-7-4-0---2---2-2-----7-7--7-9-7-4-0---|


-------------------------|
-2------3------2------2--|
-2------2------2------2--|
-0------0------0------0--|
-5------5------5------0--|
-4------5------4---------|


and thats it if you want any request's i got the songbook ok so email me at
             skateboy0404@verizion.net or guitarboy04@techemail.net
and i have the believe disturbed songbook to ok just email me
Comments