Three Days Grace - Just Like You Chords & Tabs

 

Just Like You Chords & Tabs

Three Days Grace Chords & Tabs

Version: 3 Type: Tab 4 ratings
1 star 2 stars 3 stars 4 stars 5 stars
comments

Just Like You Tab

   
Three Days Grace
"Just Like You"
Three Days Grace

transcribed by: Jim Fabry
corrections:    e-mail me at prophecyguitarman@yahoo.com

tuning:  Drop D, down 1/2 step
strings: Db Ab Db Gb Bb Eb
time:    4/4

notes: "x" means a muted string

  intro:
Eb| ---------------|---------------|---------------|---------- |
Bb|.---------------|---------------|---------------|----------.|
Gb| ---------------|---------------|---------------|7------9-9 |
Db|.9-7-4-0-9-9----|9-7-4-0-9-9----|9-7-4-0-9-9----|5------7-7.|
Ab| 9-7-4-0-9-9----|9-7-4-0-9-9----|9-7-4-0-9-9----|5------7-7 |
Db| 9-7-4-0-9-9----|9-7-4-0-9-9----|9-7-4-0-9-9----|5------7-7 |

                                3 times
[ Tab from: http://www.guitartabs.cc/tabs/t/three_days_grace/just_like_you_tab_ver_3.html ]
pre:
|----------|----------|----------|------------|
|----------|----------|----------|------------|
|6---------|7---------|6---------|---------9-9|
|4---------|5---------|4---------|---------7-7|
|4---------|5---------|4---------|---------7-7|
|4---------|5---------|4---------|---------7-7|


chorus:
| -----------|-----------------|-----------|-------------- |
|.-----------|-----------------|-----------|--------------.|
| 11-11------|9--9--12-12-12-12|11-11------|7--7----11--11 |
|.9--9--0--0-|7--7--10-10-10-10|9--9--0--0-|5--5--xx9-xx9-.|
| 9--9--0--0-|7--7--10-10-10-10|9--9--0--0-|5--5--xx9-xx9- |
| 9--9--0--0-|7--7--10-10-10-10|9--9--0--0-|5--5--xx9-xx9- |

                            2 times


verse (2x)  /  pre  /  chorus (2x)  /


bridge:
| -----------|------------|-----------|------------ |
|.-----------|------------|-----------|------------.|
| -----------|------------|-----------|------------ |
|.5----5--5-0|-----9-7-4-0|2----2--2-7|-----9-7-4-0.|
| 5----5--5-0|-----9-7-4-0|2----2--2-7|-----9-7-4-0 |
| 5----5--5-0|-----9-7-4-0|2----2--2-7|-----9-7-4-0 |


pre  /  chorus (2x)  /  verse  (1x)  /
Comments