Three Days Grace - Just Like You Chords & Tabs

 

Just Like You Chords & Tabs

Three Days Grace Chords & Tabs

Version: 1 Type: Bass Tab 0 ratings
1 star 2 stars 3 stars 4 stars 5 stars
comments

Just Like You Bass Tab

1------------
2------------
3-0-----3-0-0
4---3-0------
Repeat 3x 

1-------
2-------
3-------
4-3--3-3

1------------
2------------
3-0-----3-0-0
4---3-0------
Repeat 3x

1-------
2-------
3-------
4-3--3-3

1------------
2------------
3-0-----3-0-0
4---3-0------
Repeat 3x
[ Tab from: http://www.guitartabs.cc/tabs/t/three_days_grace/just_like_you_btab.html ]
1-------
2-------
3-------
4-3--3-3

1--------
2--------
3-2-3-2-3
4--------

1-------
2-------
3-------
4-3--3-3

1------------------------------------
2------------------------------------
3-0-0---------3-3-0-0----------------
4-----0-0-3-3---------0-0-3-3--3--3-3

just play this along to most of the song, it sounds the same!
Comments