Three Days Grace - I Hate Everything About You Chords & Tabs

 

I Hate Everything About You Chords & Tabs

Three Days Grace Chords & Tabs

Version: 7 Type: Tab 0 ratings
1 star 2 stars 3 stars 4 stars 5 stars
comments

I Hate Everything About You Tab

   
-------------------------------------------------------------------------------
	          Three Days Grace - I Hate Everything About You
-------------------------------------------------------------------------------

Standard tuning for acoutstic: EADGBe
Drop D tuning for electric:    DADGBe

Bend:       b
Pull Off:   p
Let Ring:   ~

Intro (on acoustic):
e|---------------------------------------------------------------------------
B|---------------------------------------------------------------------------
G|----4-6b------4-6b-----4-6b-----4-6b------4-6b-----4-6b-----4-6b-----4-6b--
D|----4-6b------4-6b-----4-6b-----4-6b------4-6b-----4-6b-----4-6b-----4-6b--
A|----------------------------------------0--------0--------0--------0-------
E|--2-------0-2------0-2------0-2-------0--------0--------0--------0---------

Verse (on acoustic): "Everytime we lie awake...."
e|-----------------------------------------------------------------------------
B|-----------------------------------------------------------------------------
G|------4-6b------4-6b-----4-6b-----4-6b------4-6b-----4-6b-----4-6b-----4-6b--
D|------4-6b------4-6b-----4-6b-----4-6b------4-6b-----4-6b-----4-6b-----4-6b--
A|------------------------------------------0--------0--------0--------0-------
E|--0-2-------0-2------0-2------0-2-------0--------0--------0--------0--------- X4

Pre-Chorus (electric - with effects): "Only when I stop to think about it"
e|--------------
B|--------------
G|--4~---2~-7~--
D|--4~---2~-7~--
A|--2~---0~-5~--
D|--------------

Chorus: "I, hate, everything about you..."
e|------------------------------------------------------------
B|------------------------------------------------------------
G|------------------------------------------------------------
D|--4-4--0-0--7-7-77--7-22222--4-4-44-4-0-0-00---2-2-22--7-6--
A|--4-4--0-0--7-7-77--7-22222--4-4-44-4-0-0-00---2-2-22--7-6--
D|--4-4--0-0--7-7-77--7-22222--4-4-44-4-0-0-00---2-2-22--7-6-- X2
[ Tab from: http://www.guitartabs.cc/tabs/t/three_days_grace/i_hate_everything_about_you_tab_ver_7.html ]
Verse 2 (on acoustic): "Everytime we lie awake, after every hit we take..."
e|-----------------------------------------------------------------------------
B|-----------------------------------------------------------------------------
G|------4-6b------4-6b-----4-6b-----4-6b------4-6b-----4-6b-----4-6b-----4-6b--
D|------4-6b------4-6b-----4-6b-----4-6b------4-6b-----4-6b-----4-6b-----4-6b--
A|------------------------------------------0--------0--------0--------0-------
E|--0-2-------0-2------0-2------0-2-------0--------0--------0--------0--------- X3

Pre-Chorus 2(electric - with effects): "Only when i stop to think about it"
e|--------------
B|--------------
G|--4~---2~-7~--
D|--4~---2~-7~--
A|--2~---0~-5~--
D|--------------

Chorus 2: "I, hate, everything about you..."
e|--------------------------------------------------------------
B|--------------------------------------------------------------
G|--------------------------------------------------------------
D|--4-4--0-0---7-7-77--7-22222---4-4-44-4-0-0-00---2-2-22--7-6--
A|--4-4--0-0---7-7-77--7-22222---4-4-44-4-0-0-00---2-2-22--7-6--
D|--4-4--0-0---7-7-77--7-22222---4-4-44-4-0-0-00---2-2-22--7-6-- X2

Interlude (electric): "Only, when I stop, to think a-bout you, I know..."
Guitar 1:
e|--4--5-7b-4--5-7b-4--5-7b-4--5p4----4--5-7b-4--5-7b-4--5-7b-4--5p4-------
B|---------------------------------5---------------------------------5-2~--
G|-------------------------------------------------------------------------
D|-------------------------------------------------------------------------
A|-------------------------------------------------------------------------
D|-------------------------------------------------------------------------

Guitar 2:
e|---------------------------------
B|---------------------------------
G|--7~---9~---11~---7~---9~---11~--
D|--7~---9~---11~---7~---9~---11~--
A|--5~---7~---09~---5~---7~---09~--
D|---------------------------------

Pre-chorus 3 (acoustic):
e|-------------------------------------
B|-------------------------------------
G|------4-6b------4-6b-----4-6b-----4--
D|------4-6b------4-6b-----4-6b-----4--
A|-------------------------------------
E|--0-2-------0-2------0-2------0-2----

Last Chorus: "I, hate, everything about you..."                   End On:
e|------------------------------------------------------------    -----
B|------------------------------------------------------------    -----
G|------------------------------------------------------------    -----
D|--4-4--0-0--7-7-77--7-22222--4-4-44-4-0-0-00---2-2-22--7-6--    -----
A|--4-4--0-0--7-7-77--7-22222--4-4-44-4-0-0-00---2-2-22--7-6--    -----
D|--4-4--0-0--7-7-77--7-22222--4-4-44-4-0-0-00---2-2-22--7-6-- X4 --4--
Comments