Three Days Grace - I Hate Everything About You Chords & Tabs

 

I Hate Everything About You Chords & Tabs

Three Days Grace Chords & Tabs

Version: 4 Type: Tab 1 rating
1 star 2 stars 3 stars 4 stars 5 stars
comments

I Hate Everything About You Tab

Three Days Grace: "I Hate Everything About You"

This is a great song, but I got sick of the tabs being way off.  
While not perfect, this should be much better.  You'll pick up
the strumming patterns in the chorus if you listen to the song.



Tuning: Dropped D



Intro/Verse:

|---------------------------------------------------------|
|---------------------------------------------------------|
|-----6~-----6~-----6~-----6~------6~-----6~-----6~-----6~|
|---------------------------------4------4------4------4--|
|----4------4------4------4-------------------------------|
|---4----0-4----0-4----0-4----4p0----4p0----4p0----4p0----|


                 Pre Chorus
w/ trem effect

|--------0-|
|--------3-|
|--------2-|
|-2--0---0-|
|-2--0-----|
|-2--0-----|


                 Chorus
[ Tab from: http://www.guitartabs.cc/tabs/t/three_days_grace/i_hate_everything_about_you_tab_ver_4.html ]
|-------------------------------------------------------------|
|-------------------------------------------------------------|
|-----------2-------2-----------------------------------------|
|-4-4--0-0--2-------2-2------4------0------2------7-6---------|
|-4-4--0-0--0-(x6)--0-2-(x6)-4-(X5)-0-(X5)-2-(X6)-7-6---------|
|-4-4--0-0------------2------4------0------2------7-6---------|


                    Bridge

|---------------------------------------------------------------|
|---------------------------------------------------------------|
|---------------------------------------------------------------|
|-6-7-9--6-7-9--6-7-9--6--6h7---6-7-9--6-7-9--6-7-9--6-6h7------|
|-----------------------------7----------------------------7----|
|---------------------------------------------------------------|


Intro/Verse
Pre-Chorus
Chorus
Verse
Pre-Chorus
Chorus
Bridge
1/2 Intro
Chorus


Tabbed by Jason Shank
Comments