Three Days Grace - I Hate Everything About You Chords & Tabs

 

I Hate Everything About You Chords & Tabs

Three Days Grace Chords & Tabs

Version: 12 Type: Tab 0 ratings
1 star 2 stars 3 stars 4 stars 5 stars
comments

I Hate Everything About You Tab

   
I hate everything about you - Three Days Grace


Intro:

e--------------------------------------------------|
b--------------------------------------------------|
g-------6~~~---------6~~~--------6~~~--------6~~~--|
d----4--6~~~-------4-6~~~------4-6~~~------4-6~~~--|
a----4-------------4-----------4-----------4-------|
d-4-----------0-4---------0-4---------0-4----------|

e--------------------------------------------------|
b--------------------------------------------------|
g------4-6~~~------4-6~~~------4-6~~~------4-6~~~--|
d------4-6~~~------4-6~~~------4-6~~~------4-6~~~--|
a---0-----------0-----------0-----------0----------|
d-0-----------0-----------0-----------0------------|

Verse 1:

e--------------------------------------------------|
b--------------------------------------------------|
g--------6~~~--------6~~~--------6~~~--------6~~~--|
d------4-6~~~------4-6~~~------4-6~~~------4-6~~~--|
a------4-----------4-----------4-----------4-------|
d-0-4---------0-4---------0-4---------0-4----------|

e--------------------------------------------------|
b--------------------------------------------------|
g------4-6~~~------4-6~~~------4-6~~~------4-6~~~--|
d------4-6~~~------4-6~~~------4-6~~~------4-6~~~--|
a---0-----------0-----------0-----------0----------|
d-0-----------0-----------0-----------0------------|

F#5                         D5
    Every time we lie awake ... after every hit we take
F#5                         D5
    Every feeling that I get ... but I haven't missed you yet
F#5                         D5
    Every roommate kept awake ... by every sigh and scream we make
F#5                            D5
    All the feelings that I get ... but I still don't miss you yet


Pre-Chorus:

e--------------------------------------------0-----|
b--------------------------------------------3-----|
g--------------------------------------------2-----|
d-2--------------------0---------------------0-----|
a-2--------------------0---------------------------|
d-2--------------------0---------------------------|

   Only when I stop to think about it

Chorus:

F#5    D5         A5         E5
    I     Hate    Everything about You

F#5    D5      E5     A5   G#~~
    Why    Do  I      love you?

F#5    D5         A5         E5
    I     Hate    Everything About You

F#5    D5      E5     A5   G#~~
    Why    Do  I      love you?

Music:

e--------------------------------------------------|
b--------------------------------------------------|
g--------6~~~--------6~~~--------6~~~--------6~~~--|
d------4-6~~~------4-6~~~------4-6~~~------4-6~~~--|
a------4-----------4-----------4-----------4-------|
d-0-4---------0-4---------0-4---------0-4----------|

e--------------------------------------------------|
b--------------------------------------------------|
g------4-6~~~------4-6~~~------4-6~~~------4-6~~~--|
d------4-6~~~------4-6~~~------4-6~~~------4-6~~~--|
a---0-----------0-----------0-----------0----------|
d-0-----------0-----------0-----------0------------|

Music:
[ Tab from: http://www.guitartabs.cc/tabs/t/three_days_grace/i_hate_everything_about_you_tab_ver_12.html ]
e-------------------------------------------------------0---------|
b---------------------------------------------------3-----3---3---|
g-------------------------------------------------6---6-----6-----|
d-----------------------------------------------------------------|
a-----------------------------------------------------------------|
d-----------------------------------------------------------------|

2nd Verse:

F#5                         D5
    Every time we lie awake ... after every hit we take
F#5                         D5
    Every feeling that I get ... but I haven't missed you yet

Pre-chorus:

e--------------------------------------------0-----|
b--------------------------------------------3-----|
g--------------------------------------------2-----|
d-2--------------------0---------------------0-----|
a-2--------------------0---------------------------|
d-2--------------------0---------------------------|

   Only when I stop to think about it

Chorus:

F#5    D5         A5         E5
    I     Hate    Everything about You

F#5    D5      E5     A5   G#~~
    Why    Do  I      love you?

F#5    D5         A5         E5
    I     Hate    Everything about You

F#5    D5      E5     A5   G#~~
    Why    Do  I      love you?


Bridge:
e--------------------------------------------0-----|
b--------------------------------------------3-----|
g--------------------------------------------2-----|
d-2--------------------0---------------------0-----|
a-2--------------------0---------------------------|
d-2--------------------0---------------------------|

Only when I stop to think about you, I know

e--------------------------------------------0-----|
b--------------------------------------------3-----|
g--------------------------------------------2-----|
d-2--------------------0---------------------0-----|
a-2--------------------0---------------------------|
d-2--------------------0---------------------------|

Only when you stop to think about me, do you know

Music:

e--------------------------------------------------|
b--------------------------------------------------|
g-------6~~~---------6~~~--------6~~~--------6~~~--|
d----4--6~~~-------4-6~~~------4-6~~~------4-6~~~--|
a----4-------------4-----------4-----------4-------|
d-4-----------0-4---------0-4---------0-4----------|

Chorus:

F#5    D5         A5         E5
    I     Hate    Everything about You

F#5    D5      E5     A5   G#~~
    Why    Do  I      love you?

F#5    D5         A5         E5
    You   Hate    Everything about me

F#5    D5      E5     A5   G#~~
    Why    Do  You    love me?

F#5    D5         A5         E5
    I  Hate      You    Hate

F#5    D5      E5     A5   G#~~
    I  Hate      you  (love me)

F#5    D5         A5         E5
    I     Hate    Everything about You

F#5    D5      E5     A5   G#~~
    Why    Do  I      love you?


If there are any improvments email me @  vickey_69@hotmail.com
Comments