Three Days Grace - I Hate Everything About You Chords & Tabs

 

I Hate Everything About You Chords & Tabs

Three Days Grace Chords & Tabs

Version: 1 Type: Tab 0 ratings
1 star 2 stars 3 stars 4 stars 5 stars
comments

I Hate Everything About You Tab

   
ok here it is...any suggestions or comments email me...yankees0912@aol.com

-standard tuning e a d g b e

--------------------------------------------
--------------------------------------------
------4-6b------4-6b-------4-6b------4-6b---
------4-6b------4-6b-------4-6b------4-6b---
--------------------------------------------
--0-2-------0-2--------0-2-------0-2--------
[ Tab from: http://www.guitartabs.cc/tabs/t/three_days_grace/i_hate_everything_about_you_tab.html ]
--------------------------------------------
--------------------------------------------
------4-6b------4-6b------4-6b-------4-6b---
------4-6b------4-6b------4-6b-------4-6b---
----0---------0---------0----------0--------
--0---------0---------0----------0----------

chorus(sounds ok, but deff not perfect)
----------------------------------------------
----------------------------------------------
----------------------------------------------
-4-4--2-2--7-7-6-6--4-4--2-2--7-7-6-6--(repeat)
-4-4--2-2--7-7-6-6--4-4--2-2--7-7-6-6---------
-2-2--0-0--5-5-4-4--2-2--0-0--5-5-4-4---------

well tahts all i have right now...ill come up with the rest another time peace
Comments