Three Days Grace - I Hate Everything About You Entire Song Chords & Tabs

 

I Hate Everything About You Entire Song Chords & Tabs

Three Days Grace Chords & Tabs

Version: 1 Type: Tab 3 ratings
1 star 2 stars 3 stars 4 stars 5 stars
comments

I Hate Everything About You Entire Song Tab

Three Days Grace
"i hate everything about you"
Three Days Grace

transcribed by: Jim Fabry
corrections:    e-mail me at prophecyguitarman@yahoo.com

tuning:  Drop D
strings: DADGBE
time:    4/4


  verse:
E| ----------------|----------------|----------------|---------------- |
B|.----------------|----------------|----------------|----------------.|
G| ----6-------6---|----6-------6---|--4-6-----4-6---|--4-6-----4-6--- |
D|.--4-6-----4-6---|--4-6-----4-6--0|--4-6--0--4-6--0|--4-6--0--4-6--0.|
A| 4-4----04-4----0|4-4----04-4-----|0-------0-------|0-------0------- |
D| 4------04------0|4------04-------|0-------0-------|0-------0------- |

                                5 times

pre:
|----------|---------|----------|---------|
|----------|---------|-------3--|---------|
|----------|---------|-------2--|---------|
|2---------|---------|0------0--|---------|
|2---------|---------|0---------|---------|
|2---------|---------|0---------|---------|

[ Tab from: http://www.guitartabs.cc/tabs/t/three_days_grace/i_hate_everything_about_you_entire_song_tab.html ]
chorus:
| ------------|---------------|---------------|-------------- |
|.------------|---------------|---------------|--------------.|
| ------------|---------------|---------------|-------------- |
|.4-4---8-8---|777777-722222--|444444-400000--|222222-27---6-.|
| 4-4---8-8---|777777-722222--|444444-400000--|222222-27---6- |
| 4-4---8-8---|777777-722222--|444444-400000--|222222-27---6- |

                            2 times


verse (3x)  /  pre  /  chorus (2x)  /


                                    1            2
                                    ___________ ______________
bridge:                             |           |
|4---5---7--|4---5---7--|4---5---7--|4---54-----|4---54------|
|-----------|-----------|-----------|------5----|------5---2-|
|-----------|-----------|-----------|-----------|------------|
|-----------|-----------|-----------|-----------|------------|
|-----------|-----------|-----------|-----------|------------|
|-----------|-----------|-----------|-----------|------------|


1st two measures of verse  /  chorus (4x)  /
Comments