Three Days Grace - I Hate Everything About You Chords & Tabs

 

I Hate Everything About You Chords & Tabs

Three Days Grace Chords & Tabs

Version: 3 Type: Bass Tab 0 ratings
1 star 2 stars 3 stars 4 stars 5 stars
comments

I Hate Everything About You Bass Tab

   
-------------------------------------------------------------------------------
			   i hate everything about you - three days grace
-------------------------------------------------------------------------------

Tabbed By :strider_hein 
e-mail: fletcherpl@hotmail.com

Tuning:dadg
this is my second tab so there are still some errors. this will probably give u the
main idea though.PLEASE RATE!

verse
bass comes in at 00:32
play this twice
G|-------------------------------------------------------------------------|
D|-------------------------------------------------------------------------|
A|-------------------------------------------------------------------------|
D|-444-4444-4444-4444-0000-0000-0000-0000----------------------------------|

pre-chorus
when adam sings the word "think" play the open note
G|-------------------------------------------------------------------------|
D|-------------------------------------------------------------------------|
A|-------------------------------------------------------------------------|
D|-4-------------------------0----h5---------------------------------------|

note:during the chorus when u play the notes A(0) F#(4) and D(0) play the second
two notes quicker than the first two. e.g.00is slower than the next 00 which is
played quicker.
chorus
play twice
G|-------------------------------------------------------------------------|
D|-------------------------------------------------------------------------|
A|------------0000---------------------------------------------------------|
D|-44---00--------2222-4444-0000---2222/76---------------------------------|
[ Tab from: http://www.guitartabs.cc/tabs/t/three_days_grace/i_hate_everything_about_you_btab_ver_3.html ]
verse
play this twice
G|-------------------------------------------------------------------------|
D|-------------------------------------------------------------------------|
A|-------------------------------------------------------------------------|
D|-444-4444-4444-4444-0000-0000-0000-0000----------------------------------|

pre-chorus
same as before play when adam sings think
G|-------------------------------------------------------------------------|
D|-------------------------------------------------------------------------|
A|-------------------------------------------------------------------------|
D|-4-------------------------0----h5---------------------------------------|

chorus
play twice
G|-------------------------------------------------------------------------|
D|-------------------------------------------------------------------------|
A|------------0000---------------------------------------------------------|
D|-44---00--------2222-4444-0000---2222/76---------------------------------|

bridge
(let these notes ring)
G|-------------------------------------------------------------------------|
D|-------------------------------------------------------------------------|
A|-------------------------------------------------------------------------|
D|--4--------------------6-------------7------------------10---------------|

chorus
play four times
G|-------------------------------------------------------------------------|
D|-------------------------------------------------------------------------|
A|-----------0000----------------------------------------------------------|
D|-44---00-------2222--4444-0000---2222/76---------------------------------|

| /  slide up
| \  slide down
| h  hammer-on
| p  pull-off
| ~  vibrato
| +  harmonic
| x  Mute note
============================================================================

this is the end of my tab and i do believe it is pretty close. look out for
definatly maybe by fm static coming soon. if u want another tab by me try
phenomenon by thousand foot krutch. BUY THEIR ALBUMS THEY ARE AN AMAZING BAND. 
rock n roll.
Comments