Three Days Grace - Home Chords & Tabs

 

Home Chords & Tabs

Three Days Grace Chords & Tabs

Version: 7 Type: Tab 0 ratings
1 star 2 stars 3 stars 4 stars 5 stars
comments

Home Tab

Three Days Grace - Home
Tuning: Drop C   CGCFAD

Got a 3DG tab book and there were some differences from the previously listed Home tabs. 
This was mostly taken from the 3DG tab book!  I cannot take credit for the entire 
 But I did so some of it by ear!
DUE CREDIT - "Hal and Leonard Corporation"

Guitar 1 - Adam Gontier
Guitar 2 - Barry Stock

... = Palm Mute

INTRO
Guitar 1
|0-0------0-0---------------------|-0-0-----0-0----------------------|
|6-6------6-6---------------------|-6-6-----6-6----------------------|
|7-7------7-7---------------------|-7-7-----7-7-----------5-5--------|
|0-0------0-0----10-10---5-5------|-0-0-----0-0----1-1----5-5--------|
|0-0------0-0----8--8----5-5------|-0-0-----0-0----1-1----3-3--------|
|0-0------0-0----8--8----5-5------|-0-0-----0-0----1-1---------------|

Guitar 2
|-----17------17------18-----20-18-|----17------17------18-----20-18-|
|15-------15-----15------15--------|15------15-----15------15--------|
|--17-------17------17-----17------|--17------17------17-----17------|
|----------------------------------|---------------------------------|
|----------------------------------|---------------------------------|
|----------------------------------|---------------------------------|

INTRO - Part 2
Guitar 1
|0-0-----0-0-----------------------|0-0-----0-0-------------------------|
|6-6-----6-6-----------------------|6-6-----6-6-------------------------|
|7-7-----7-7-----------------------|7-7-----7-7--------------5-5--------|
|0-0-----0-0-----10-10-----5-5-----|0-0-----0-0-----1-1------5-5--------|
|0-0-----0-0-----8--8------5-5-----|0-0-----0-0-----1-1------3-3--------|
|0-0-000-0-0-000-8--8--888-5-5-555-|0-0-000-0-0-000-1-1-111-------------|
     ...     ...       ...     ...      ...    ...    ...
Guitar 2
|-----17------17------18-----20-18-|-----17------17------18-------20-18-|
|15-------15-----15------15--------|15------15------15-------15---------|
|--17-------17------17-----17------|--17------17------17-------17-------|
|----------------------------------|------------------------------------|
|----------------------------------|------------------------------------|
|----------------------------------|------------------------------------|
-
VERSE  3X      NOTE: I dont believe the pull-offs listed in other tabs are needed!!!!
                                 Both Guitars__________________
|--------------------------------------------------------------|
|--------------------------------------------------------------|
|--------------------------------------------------------------| 2X
|--------------------------------------------------------------|
|--------------------------------|-0-3-0-0-5-0-0-7-0-0-8-10-12-|
|--------------------------------|-0-3-0-0-5-0-0-7-0-0-8-10-12-|

Guitar 2 only
|-5--5--5--5------|-6--6--6--6---|
|-----------------|--------------|
|--7--7--7--7-----|--7--7--7--7--| 3X
|-----------------|--------------|
|-----------------|--------------|
|-----------------|--------------|

CHORUS

There are four strums in each measure.....
Guitar 1 play the 1st, 3rd and 4th strums
Guitar 2 play the 2nd, 3rd and 4th.

|---0----------|----0-----------|----0------------|----0-------------|
|---6----------|----6-----------|----6------------|----6-------------|
|---7----------|----7------5----|----7------------|----7---------5---|
|0--0--10--5---|-0--0---1--5----|-0--0---10---5---|-0--0---1-----5---|
|0-----8---5---|-0------1--3----|-0------8----5---|-0------1-----3---|
|0-----8---5---|-0------1-------|-0------8----5---|-0------1---------|


Guitar 1
|0-0------0-0---------------------|-0-0-----0-0----------------------|
|6-6------6-6---------------------|-6-6-----6-6----------------------|
|7-7------7-7---------------------|-7-7-----7-7-----------5-5--------|
|0-0------0-0----10-10---5-5------|-0-0-----0-0----1-1----5-5--------|
|0-0------0-0----8--8----5-5------|-0-0-----0-0----1-1----3-3--------|
|0-0------0-0----8--8----5-5------|-0-0-----0-0----1-1---------------|

Guitar 2
|-----17------17------18-----20-18-|----17------17------18-----20-18-|
|15-------15-----15------15--------|15------15-----15------15--------|
|--17-------17------17-----17------|--17------17------17-----17------|
|----------------------------------|---------------------------------|
|----------------------------------|---------------------------------|
|----------------------------------|---------------------------------|

Both Guitars
|----------------------------|
|----------------------------|
|----------------------------| 2X
|----------------------------|
|0-3-0-0-5-0-0-7-0-0-8-10-12-|
|0-3-0-0-5-0-0-7-0-0-8-10-12-|
[ Tab from: http://www.guitartabs.cc/tabs/t/three_days_grace/home_tab_ver_7.html ]
VERSE
Guitar 1
                                 Both Guitars__________________
|--------------------------------------------------------------|
|--------------------------------------------------------------|
|--------------------------------------------------------------| 2X
|--------------------------------------------------------------|
|--------------------------------|-0-3-0-0-5-0-0-7-0-0-8-10-12-|
|--------------------------------|-0-3-0-0-5-0-0-7-0-0-8-10-12-|

Guitar 2 only
|-5--5--5--5------|-6--6--6--6---|
|-----------------|--------------|
|--7--7--7--7-----|--7--7--7--7--| 3X
|-----------------|--------------|
|-----------------|--------------|
|-----------------|--------------|

CHORUS
There are four strums in each measure.....
Guitar 1 play the 1st, 3rd and 4th strums
Guitar 2 play the 2nd, 3rd and 4th.

|---0----------|----0-----------|----0------------|----0-------------|
|---6----------|----6-----------|----6------------|----6-------------|
|---7----------|----7------5----|----7------------|----7---------5---|
|0--0--10--5---|-0--0---1--5----|-0--0---10---5---|-0--0---1-----5---|
|0-----8---5---|-0------1--3----|-0------8----5---|-0------1-----3---|
|0-----8---5---|-0------1-------|-0------8----5---|-0------1---------|

Guitar 1
|0-0------0-0---------------------|-0-0-----0-0----------------------|
|6-6------6-6---------------------|-6-6-----6-6----------------------|
|7-7------7-7---------------------|-7-7-----7-7-----------5-5--------|
|0-0------0-0----10-10---5-5------|-0-0-----0-0----1-1----5-5--------|
|0-0------0-0----8--8----5-5------|-0-0-----0-0----1-1----3-3--------|
|0-0------0-0----8--8----5-5------|-0-0-----0-0----1-1---------------|

Guitar 2
|-----17------17------18-----20-18-|----17------17------18-----20-18-|
|15-------15-----15------15--------|15------15-----15------15--------|
|--17-------17------17-----17------|--17------17------17-----17------|
|----------------------------------|---------------------------------|
|----------------------------------|---------------------------------|
|----------------------------------|---------------------------------|

Guitar 1
|0-0-----0-0-----------------------|0-0-----0-0-------------------------|
|6-6-----6-6-----------------------|6-6-----6-6-------------------------|
|7-7-----7-7-----------------------|7-7-----7-7--------------5-5--------|
|0-0-----0-0-----10-10-----5-5-----|0-0-----0-0-----1-1------5-5--------|
|0-0-----0-0-----8--8------5-5-----|0-0-----0-0-----1-1------3-3--------|
|0-0-000-0-0-000-8--8--888-5-5-555-|0-0-000-0-0-000-1-1-111-------------|
     ...     ...       ...     ...      ...     ...     ...
Guitar 2
|-----17------17------18-----20-18-|-----17------17------18-------20-18-|
|15-------15-----15------15--------|15------15------15-------15---------|
|--17-------17------17-----17------|--17------17------17-------17-------|
|----------------------------------|------------------------------------|
|----------------------------------|------------------------------------|
|----------------------------------|------------------------------------|

BRIDGE
Bass and drums come in........

Both Guitars
NOTE:  Start with a heavy palm mute and then gradually release.  You will only slightly 
mute the last couple of "000"s and then play the "111"s with no mute.
|------------------------|
|------------------------|
|------------------------|
|0-0-0-0-0-0-0-0-1-1-1---|
|0-0-0-0-0-0-0-0-1-1-1---|
|0-0-0-0-0-0-0-0-1-1-1---|  I'm better off alonnnneeeeeeeeeee....
 ...............

CHORUS
There are four strums in each measure.....
Guitar 1 play the 1st, 3rd and 4th strums
Guitar 2 play the 2nd, 3rd and 4th.

|--0-----------|----0----------|----0------------|----0-------------|
|--6-----------|----6----------|----6------------|----6-------------|
|--7-----------|----7-------5--|----7------------|----7-------5-----|
|0-0---10--5---|-0--0---1---5--|-0--0---10---5---|-0--0---1---5-----|
|0-----8---5---|-0------1---3--|-0------8----5---|-0------1---3-----|
|0-----8---5---|-0------1------|-0------8----5---|-0------1---------|


Guitar 1
|0-0------0-0---------------------|-0-0-----0-0----------------------|
|6-6------6-6---------------------|-6-6-----6-6----------------------|
|7-7------7-7---------------------|-7-7-----7-7-----------5-5--------|
|0-0------0-0----10-10---5-5------|-0-0-----0-0----1-1----5-5--------| 2X
|0-0------0-0----8--8----5-5------|-0-0-----0-0----1-1----3-3--------|
|0-0------0-0----8--8----5-5------|-0-0-----0-0----1-1---------------|

Guitar 2
|-----17------17------18-----20-18-|----17------17------18-----20-18-|
|15-------15-----15------15--------|15------15-----15------15--------|
|--17-------17------17-----17------|--17------17------17-----17------|
|----------------------------------|---------------------------------|2X
|----------------------------------|---------------------------------|
|----------------------------------|---------------------------------|

Guitar 1
|0-0----0-0-------------------------0-|
|6-6----6-6-------------------------6-|
|7-7----7-7-------------------------7-|  1X
|0-0----0-0-----10-10---5-5---------0-|
|0-0----0-0-----8--8----5-5---------0-|
|0-0----0-0-----8--8----5-5---------0-|

Guitar 2
|----17--strum once and let ring----0-|
|-----------------------------------6-|
|-----------------------------------7-|  1X
|-----------------------------------0-|
|-----------------------------------0-|
|-----------------------------------0-|
Comments