Three Days Grace - Home Chords & Tabs

 

Home Chords & Tabs

Three Days Grace Chords & Tabs

Version: 6 Type: Tab 0 ratings
1 star 2 stars 3 stars 4 stars 5 stars
comments

Home Tab

Artist: Three Days Grace
Song: Home
Album: Three Days Grace
Tabbed by: Kyle M.(MoMo)(high_voltage21)
Email: high_voltage21@hotmail.com

This is my first tab so if it does not sound right (which it probably won't) please
forgive me. Also my timing is bad so just listen to the song for it.

Tuning: EADGBe

Intro
e|---------------------------------------------------|
B|---------------------------------------------------|
G|---------------------------------------------------|
D|-0-0--3---0-0--5---0-0--7---0-0--3-5---------------|
A|-0-0--3---0-0--5---0-0--7---0-0--3-5---------------|
E|-0-0--3---0-0--5---0-0--7---0-0--3-5---------------|x4

Verse
e|--3--3--3--3--4--4--4--4----|
B|-3--3--3--3--3--3--3--3-----|
G|----------------------------|
D|----------------------------|
A|----------------------------|
E|----------------------------|

e|--------------------------------------------------|
B|--------------------------------------------------|
G|--------------------------------------------------|
D|--------------------------------------------------|
A|--------------------------------------------------|
E|--0-30-050-070-8-10-13----0-30-050-070-8-10-13----|

e|--3--3--3--3--4--4--4--4----|
B|-3--3--3--3--3--3--3--3-----|
G|----------------------------|
D|----------------------------|
A|----------------------------|
E|----------------------------|

e|--------------------------------------------------|
B|--------------------------------------------------|
G|--------------------------------------------------|
D|--------------------------------------------------|
A|--------------------------------------------------|
E|--0-30-050-070-8-10-13----0-30-050-070-8-10-13----|
[ Tab from: http://www.guitartabs.cc/tabs/t/three_days_grace/home_tab_ver_6.html ]
e|--3--3--3--3--4--4--4--4----|
B|-3--3--3--3--3--3--3--3-----|
G|----------------------------|
D|----------------------------|
A|----------------------------|
E|----------------------------|

Chorus
e|------------------------------------|
B|-----10-------------10--------------|
G|-----9--------------9---------------|
D|--0--0----8--5---0--0----13--10-----|
A|--0--0----8--5---0--0----13--10-----|
E|--0--0----8--5---0--0----13--10-----|x2

Intro (whole bar played 2x)

e|--------------------------------------------------|
B|--------------------------------------------------|
G|--------------------------------------------------|
D|--------------------------------------------------|
A|--------------------------------------------------|
E|--0-30-050-070-8-10-13----0-30-050-070-8-10-13----|

Verse

Chorus (whole bar played 2x)

Intro (whole bar played 4x)

Bridge
e|-----------------------------------------------------------|
B|-----------------------------------------------------------|
G|-----------------------------------------------------------|
D|-0------------0----------0---------0-0-0-0-0-0-0-0-1-1-1---|
A|-0------------0----------0---------0-0-0-0-0-0-0-0-1-1-1---|
E|-0------------0----------0---------0-0-0-0-0-0-0-0-1-1-1---|

Chorus (whole bar played 2x)

Intro (whole bar played 2x)

Outro
e|---------------------------------------------------|
B|---------------------------------------------------|
G|---------------------------------------------------|
D|-0-0------0-0------0-0--7---0-0--3-5---------------|
A|-0-0------0-0------0-0--7---0-0--3-5---------------|
E|-0-0------0-0------0-0--7---0-0--3-5---------------|x2

e|---------------------------------------------------|
B|----------------------------------10---------------|
G|----------------------------------9----------------|
D|-0-0------0-0-----3-3-------5-5---0----------------|
A|-0-0------0-0-----3-3-------5-5---0----------------|
E|-0-0------0-0-----3-3-------5-5---0----------------|

============================================================================
Comments