Three Days Grace - Home Chords & Tabs

 

Home Chords & Tabs

Three Days Grace Chords & Tabs

Version: 5 Type: Tab 0 ratings
1 star 2 stars 3 stars 4 stars 5 stars
comments

Home Tab

   
Song: Home
Artist: Three Days Grace
Tabber: Steven Banks [Squall_inside@hotmail.com]
I don't own this song.
Tuning: Drop C. Low to high (C, G, C, F, A, D)

Intro:

Guitar One
|----------------------------|-----------------------------|
|----------------------------|-----------------------------|
|----------------------------|-----------------------------|
|0-0---0-0---10-10--5-5------|-0-0---0-0---1-1---5-5-------|
|0-0---0-0---8--8---5-5------|-0-0---0-0---1-1---3-3-------|
|0-0---0-0---8--8---5-5------|-0-0---0-0---1-1-------------|

Guitar Two
|---17----17-----18----20-18-|----17----17-----18----20-18-|
|----------------------------|-----------------------------|
|----------------------------|-----------------------------|
|----------------------------|-----------------------------|
|----------------------------|-----------------------------|
|----------------------------|-----------------------------|

Guitar One
|------------------------------------------|--------------------------------------------|
|------------------------------------------|--------------------------------------------|
|------------------------------------------|--------------------------------------------|
|0-0-x-x-x-0-0-x-x-x-10-10-x-x-x-5-5-x-x-x-|-0-0-x-x-x-0-0-x-x-x-1-1-x-x-x-5-5-x-x-x----|
|0-0-x-x-x-0-0-x-x-x-8--8--x-x-x-5-5-x-x-x-|-0-0-x-x-x-0-0-x-x-x-1-1-x-x-x-3-3-x-x-x----|
|0-0-x-x-x-0-0-x-x-x-8--8--x-x-x-5-5-x-x-x-|-0-0-x-x-x-0-0-x-x-x-1-1-x-x-x--------------|

Guitar Two
|-----17--------17----------18-------20-18-|------17---------17--------18-------20-18-17|
|------------------------------------------|--------------------------------------------|
|------------------------------------------|--------------------------------------------|
|------------------------------------------|--------------------------------------------|
|------------------------------------------|--------------------------------------------|
|------------------------------------------|--------------------------------------------|

Verse:

Guitar One
|----------------------------------------------------------------------|
|----------------------------------------------------------------------|
|----------------------------------------------------------------------|
|----------------------------------------------------------------------|
|----------------------------------------------------------------------|
|------------------------------------------0-3p0-0-5p0-0-7p0-0-8-10-12-|(do twice)

Guitar Two
|--------------------|---------------------|
|--10---10---10---10-|---11---11---11---11-|
|7----7----7----7----|-7----7----7----7----|
|--------------------|---------------------|
|--------------------|---------------------|
|--------------------|---------------------| 

Chorus:

Guitar One and Two:
|-----------------|----0-----------|----0------------|----0-------------|
|-----------------|----3-----------|----3------------|----3-------------|
|-----------------|----2-----------|----2------------|----2-------------|
|---------10--5---|-0------1---5---|-0------10---5---|-0------1-----5---|
|0-0-0-0--8---5---|-0------1---3---|-0------8----5---|-0------1-----3---|
|0-0-0-0--8---5---|-0------1-------|-0------8----5---|-0------1---------|

Better off alone
Guitar One
|----------------------------|-----------------------------|
|----------------------------|-----------------------------|
|----------------------------|-----------------------------|
|0-0---0-0---10-10--5-5------|-0-0---0-0---1-1---5-5-------|
|0-0---0-0---8--8---5-5------|-0-0---0-0---1-1---3-3-------|
|0-0---0-0---8--8---5-5------|-0-0---0-0---1-1-------------|

Guitar Two
|---17----17-----18----20-18-|----17----17-----18----20-18-|
|----------------------------|-----------------------------|
|----------------------------|-----------------------------|
|----------------------------|-----------------------------|
|----------------------------|-----------------------------|
|----------------------------|-----------------------------|

Guitar One
|----------------------------|
|----------------------------|
|----------------------------|
|----------------------------|
|----------------------------|
|0-3p0-0-5p0-0-7p0-0-8-10-12-|


Verse:
[ Tab from: http://www.guitartabs.cc/tabs/t/three_days_grace/home_tab_ver_5.html ]
Guitar One
|----------------------------------------------------------------------|
|----------------------------------------------------------------------|
|----------------------------------------------------------------------|
|----------------------------------------------------------------------|
|----------------------------------------------------------------------|
|------------------------------------------0-3p0-0-5p0-0-7p0-0-8-10-12-|(do twice)

Guitar Two
|--------------------|---------------------|
|--10---10---10---10-|---11---11---11---11-|
|7----7----7----7----|-7----7----7----7----|
|--------------------|---------------------|
|--------------------|---------------------|
|--------------------|---------------------| 

Chorus:

Guitar One and Two:
|-----------------|----0-----------|----0------------|----0-------------|
|-----------------|----3-----------|----3------------|----3-------------|
|-----------------|----2-----------|----2------------|----2-------------|
|---------10--5---|-0------1---5---|-0------10---5---|-0------1-----5---|
|0-0-0-0--8---5---|-0------1---3---|-0------8----5---|-0------1-----3---|
|0-0-0-0--8---5---|-0------1-------|-0------8----5---|-0------1---------|

Better off alone
Guitar One
|----------------------------|-----------------------------|
|----------------------------|-----------------------------|
|----------------------------|-----------------------------|
|0-0---0-0---10-10--5-5------|-0-0---0-0---1-1---5-5-------|
|0-0---0-0---8--8---5-5------|-0-0---0-0---1-1---3-3-------|
|0-0---0-0---8--8---5-5------|-0-0---0-0---1-1-------------|

Guitar Two
|---17----17-----18----20-18-|----17----17-----18----20-18-|
|----------------------------|-----------------------------|
|----------------------------|-----------------------------|
|----------------------------|-----------------------------|
|----------------------------|-----------------------------|
|----------------------------|-----------------------------|

Guitar One
|------------------------------------------|--------------------------------------------|
|------------------------------------------|--------------------------------------------|
|------------------------------------------|--------------------------------------------|
|0-0-x-x-x-0-0-x-x-x-10-10-x-x-x-5-5-x-x-x-|-0-0-x-x-x-0-0-x-x-x-1-1-x-x-x-5-5-x-x-x----|
|0-0-x-x-x-0-0-x-x-x-8--8--x-x-x-5-5-x-x-x-|-0-0-x-x-x-0-0-x-x-x-1-1-x-x-x-3-3-x-x-x----|
|0-0-x-x-x-0-0-x-x-x-8--8--x-x-x-5-5-x-x-x-|-0-0-x-x-x-0-0-x-x-x-1-1-x-x-x--------------|

Guitar Two
|-----17--------17----------18-------20-18-|------17---------17--------18-------20-18-17|
|------------------------------------------|--------------------------------------------|
|------------------------------------------|--------------------------------------------|
|------------------------------------------|--------------------------------------------|
|------------------------------------------|--------------------------------------------|
|------------------------------------------|--------------------------------------------|

Bridge:

Guitar One [this part is actually bass, but you can turn your volume knob down and play along]
|--------------------------------|
|--------------------------------|
|--------------------------------|
|--------------------------------|
|--------------------------------|
|0-0-0-0-0-0-0-0-8-8-8-8-5-5-5-5-| (x3)

Guitar Two:
|------------------------|
|------------------------|
|------------------------|
|------------------------|
|------------------------|
|0-0-0-0-0-0-0-0-1-1-1-1-|  I'm better off alone

Chorus:

Guitar One and Two:
|-----------------|----0-----------|----0------------|----0-------------|
|-----------------|----3-----------|----3------------|----3-------------|
|-----------------|----2-----------|----2------------|----2-------------|
|---------10--5---|-0------1---5---|-0------10---5---|-0------1-----5---|
|0-0-0-0--8---5---|-0------1---3---|-0------8----5---|-0------1-----3---|
|0-0-0-0--8---5---|-0------1-------|-0------8----5---|-0------1---------|

Better off alone
Guitar One
|----------------------------|-----------------------------|
|----------------------------|-----------------------------|
|----------------------------|-----------------------------|
|0-0---0-0---10-10--5-5------|-0-0---0-0---1-1---5-5-------|
|0-0---0-0---8--8---5-5------|-0-0---0-0---1-1---3-3-------|
|0-0---0-0---8--8---5-5------|-0-0---0-0---1-1-------------|

Guitar Two
|---17----17-----18----20-18-|----17----17-----18----20-18-|
|----------------------------|-----------------------------|
|----------------------------|-----------------------------|
|----------------------------|-----------------------------|
|----------------------------|-----------------------------|
|----------------------------|-----------------------------| (repeat)

Ends with an open D

There, that's all in order. I'm almost 100% sure it's correct. Please rate.
Comments