Three Days Grace - Home Chords & Tabs

 

Home Chords & Tabs

Three Days Grace Chords & Tabs

Version: 2 Type: Bass Tab 0 ratings
1 star 2 stars 3 stars 4 stars 5 stars
comments

Home Bass Tab

   
-------------------------------------------------------------------------------
			     HOME - Three Days Grace
-------------------------------------------------------------------------------

Tabbed By : KoRnKid89
e-mail: XblytheX89@AOL.COM

Tuning: CGCFA

  Intro:
A|-----------------------------------------------|-----------------------------------------------|
F|-----------------------------------------------|-----------------------------------------------|
C|-----------------------------------------------|-----------------------------------------------|
G|-----------------------------------------------|-----------------------------------3--3--------|
C|--0--0-------0--0-------8--8-------5--5--------|--0--0-------0--0-------1--1-------------------|

A|-----------------------------------------------|-----------------------------------------------|
F|-----------------------------------------------|-----------------------------------------------|
C|-----------------------------------------------|-----------------------------------------------|
G|-----------------------------------------------|-----------------------------------3--3--------|
C|--0--0--X-XX-0--0--X-XX-8--8--X-XX-5--5--X-XX--|--0--0--X-XX-0--0--X-XX-1--1--X-XX-------X-XX--|

  
  Verse:
A|--------------------------|--------------------------|
F|--------------------------|--------------------------| 
C|--------------------------|--------------------------| 
G|--------------------------|--------------------------| 
C|--8--8--8--8--8--8--8--8--|--5--5--5--5--5--5--5--5--| 

A|----------------------------------|
F|----------------------------------|
C|----------------------------------|
G|----------------------------------|
C|--0-0-0-0-3h5-0-0-7-0-0-8--10-10--|
  (x2)

A|--------------------------|--------------------------|
F|--------------------------|--------------------------|
C|--------------------------|--------------------------|
G|--------------------------|--------------------------|
C|--8--8--8--8--8--8--8--8--|--5--5--5--5--5--5--5--5--|

  
  Choruses 1 & 2:
A|--------------------------|--------------------------|
F|--------------------------|--------------------------|
C|--------------------------|--------------------------|
G|--------------------------|--------------------------|
C|--0--0--0--0--0--0--0--0--|--8--8--8--8--5--5--5--5--|

A|--------------------------|--------------------------|
F|--------------------------|--------------------------|
C|--------------------------|--------------------------|
G|--------------------------|--------------3~----------|
C|--0--0--0--0--0--0--0--0--|--1--1--1--1--------------|
  (x2)
[ Tab from: http://www.guitartabs.cc/tabs/t/three_days_grace/home_btab_ver_2.html ]
A|-----------------------------------------------|-----------------------------------------------|
F|-----------------------------------------------|-----------------------------------------------|
C|-----------------------------------------------|-----------------------------------------------|
G|-----------------------------------------------|-----------------------------------3--3--------|
C|--0--0-------0--0-------8--8-------5--5--------|--0--0--X-XX-0--0--X-XX-1--1--X-XX-------X-XX--|



  Intro to second verse:
A|---------------------------------|
F|---------------------------------|
C|---------------------------------|
G|---------------------------------|
C|--0--0-0-3h5-0-0-7-0-0-8--10-10--|


  Bridge:
A|--------------------------|--------------------------|
F|--------------------------|--------------------------|
C|--------------------------|--------------------------|
G|--------------------------|--------------------------|
C|--0--0--0--0--0--0--0--0--|--8--8--8--8--5--5--5--5--|(x3)

A|--------------------------|--------------------------|
F|--------------------------|--------------------------|
C|--------------------------|--------------------------|
G|--------------------------|--------------------------|
C|--0--0--0--0--0--0--0--0--|--1--1--1-----------------|


  Chorus 3:
A|--------------------------|--------------------------|
F|--------------------------|--------------------------|
C|--------------------------|--------------------------|
G|--------------------------|--------------------------|
C|--0--0--0--0--0--0--0--0--|--8--8--8--8--5--5--5--5--|

A|--------------------------|--------------------------|
F|--------------------------|--------------------------|
C|--------------------------|--------------------------|
G|--------------------------|--------------3--3--3--3--|
C|--0--0--0--0--0--0--0--0--|--1--1--1--1--------------|
  (x2)

A|-----------------------------------------------|-----------------------------------------------|
F|-----------------------------------------------|-----------------------------------------------|
C|-----------------------------------------------|-----------------------------------------------|
G|-----------------------------------------------|-----------------------------------3--3--------|
C|------------------------8--8-------5--5--------|--0--0--X-XX-0--0--X-XX-1--1--X-XX-------X-XX--|

A|-----------------------------------------------|-----------------------------------------------|
F|-----------------------------------------------|-----------------------------------------------|
C|-----------------------------------------------|-----------------------------------------------|
G|-----------------------------------------------|-----------------------------------3--3--------|
C|--0--0--X-XX-0--0--X-XX-8--8--X-XX-5--5--X-XX--|--0--0--X-XX-0--0--X-XX-1--1--X-XX-------X-XX--|

A|-----------------------------------------------|-----------------------------------------------|
F|-----------------------------------------------|-----------------------------------------------|
C|-----------------------------------------------|-----------------------------------------------|
G|-----------------------------------------------|-----------------------------------------------|
C|--0--0--X-XX-0--0--X-XX-8--8--X-XX-5--5--X-XX--|--0--------------------------------------------|



| /  slide up
| \  slide down
| h  hammer-on
| p  pull-off
| ~  vibrato
| +  harmonic
| x  Mute note
===============================================================================
Comments