Three Days Grace - Home Chords & Tabs

 

Home Chords & Tabs

Three Days Grace Chords & Tabs

Version: 1 Type: Bass Tab 0 ratings
1 star 2 stars 3 stars 4 stars 5 stars
comments

Home Bass Tab

   
Tabbed By : gr33n_dayw49
e-mail: gr33n_dayw49@hotmail.com

Tuning: Drop C (C, A, D, G)

  All you need to know is:
                          |x = mute note

   Intro
G|---------------------------------------------------------|
D|---------------------------------------------------------|
A|---------------------------------------------------------|
C|0-0----0-0----8-8----5-5--------0-0----0-0----8-8----5-5-|

G|----------------------------------------------------------------------------------|
D|----------------------------------------------------------------------------------|
A|----------------------------------------------------------------------------------|
C|0-0-x-x--x-0-0-x-x--x-8-8-x-x--x-5-5-x-x--x-0-0-x-x--x-0-0-x-x--x-1-1-x-x--x10-10-|

  Verse x2
G|------------------------------------------------|
D|------------------------------------------------|
A|------------------------------------------------|
C|-0--0--0--0--0--0--0--0--8--8--8--8--8--8--8--8-|

G|-------------------------------------------------------------------------|
D|-------------------------------------------------------------------------|
A|-------------------------------------------------------------------------|
C|-00--3p--00--5p--00-7p--0-8--10--12---00-3p--00-5p--00-7p--0--8--10--12--|
  
  Pre-Chorus
G|------------------------------------------------|
D|------------------------------------------------|
A|------------------------------------------------|
C|-0--0--0--0--0--0--0--0--8--8--8--8--8--8--8--8-| 
  
  Chorus
G|-------------------------------------------------------------------------|
D|-------------------------------------------------------------------------|
A|-------------------------------------------------------------------------|
C|-0------8----5-----0------1----10----0------8----5-----0------1----10----|

G|------------------------------------------------------------------|
D|------------------------------------------------------------------|
A|------------------------------------------------------------------|
C|0-0----0-0----8-8----5-5----0-0-x-x--x-0-0-x-x--x-1-1-x-x--x10-10-|
  
  Interlude
G|---R------------------------------------------------------|
D|---E------------------------------------------------------|
A|---S------------------------------------------------------|
C|---T--------------------00-3p--00-5p--00-7p--0--8--10--12-|

 Verse x2
G|------------------------------------------------|
D|------------------------------------------------|
A|------------------------------------------------|
C|-0--0--0--0--0--0--0--0--8--8--8--8--8--8--8--8-|
[ Tab from: http://www.guitartabs.cc/tabs/t/three_days_grace/home_btab.html ]
G|-------------------------------------------------------------------------|
D|-------------------------------------------------------------------------|
A|-------------------------------------------------------------------------|
C|-00--3p--00--5p--00-7p--0-8--10--12---00-3p--00-5p--00-7p--0--8--10--12--|

  Pre-Chorus
G|------------------------------------------------|
D|------------------------------------------------|
A|------------------------------------------------|
C|-0--0--0--0--0--0--0--0--8--8--8--8--8--8--8--8-| 

 Chorus
G|-------------------------------------------------------------------------|
D|-------------------------------------------------------------------------|
A|-------------------------------------------------------------------------|
C|-0------8----5-----0------1----10----0------8----5-----0------1----10----|

G|---------------------------------------------------------|
D|---------------------------------------------------------|
A|---------------------------------------------------------|
C|0-0----0-0----8-8----5-5--------0-0----0-0----8-8----5-5-|

G|----------------------------------------------------------------------------------|
D|----------------------------------------------------------------------------------|
A|----------------------------------------------------------------------------------|
C|0-0-x-x--x-0-0-x-x--x-8-8-x-x--x-5-5-x-x--x-0-0-x-x--x-0-0-x-x--x-1-1-x-x--x10-10-|

  Bridge  x3
G|-----------------------------------|  4th Time G|-------------------------|
D|-----------------------------------|           D|-------------------------|
A|-----------------------------------|           A|-------------------------|
C|-0-0-0-0-0-0-0-0--8-8-8-8-5-5-5-5--|           C|-0-0-0-0-0-0-0-0--1-1-1--|

Chorus
G|-------------------------------------------------------------------------|
D|-------------------------------------------------------------------------|
A|-------------------------------------------------------------------------|
C|-0------8----5-----0------1----10----0------8----5-----0------1----10----|
 
 Outro
G|--R-----------------------------------------------------------------------------|
D|--E-----------------------------------------------------------------------------|
A|--S-----------------------------------------------------------------------------|
C|--T------------8-8----5-5--------0-0-x-x--x-0-0-x-x-x--1-1-x-x-x--10-10-x-x--x-|

G|----------------------------------------------------------------------------------|
D|----------------------------------------------------------------------------------|
A|----------------------------------------------------------------------------------|
C|0-0-x-x--x-0-0-x-x--x-8-8-x-x--x-5-5-x-x--x-0-0-x-x--x-0-0-x-x--x-1-1-x-x--x10-10-|

G|-------------------------------------------|
D|-------------------------------------------|
A|-------------------------------------------|
C|0-0-x-x-x-0-0-x-x--x-8-8-x-x--x-5-5-x-x--x-| 

End On C|-0~~~~~~|
Comments