Three Days Grace - Drown Chords & Tabs

 

Drown Chords & Tabs

Three Days Grace Chords & Tabs

Version: 4 Type: Tab 0 ratings
1 star 2 stars 3 stars 4 stars 5 stars
comments

Drown Tab

   
Band- Three Days Grace
Song- Drown

Gtr I  (B F# B E G# C#) - 'Barry Stock'
Gtr II (B F# B E G# C#) - 'Adam Gontier'

  Q=145


Take note of the tuning, very strange, but you can 
play it in Drop D too, or better yet Drop Db



  Intro - Gtrs I, II
|-------------------------------------------------------|
|-------------------------------------------------------|
|-------------------------------------------------------|
|---0--0-3--0-3--0-5--0-2--2--8----8---7--7-------------|
|---0--0-3--0-3--0-5--0-2--2--8----8---7--7---7----7h8--|
|---0--0-3--0-3--0-5--0-2--2--8----8---7--7-8----8------|


|------------------------------------------------------|
|------------------------------------------------------|
|------------------------------------------------------|
|-0--0-3--0-3---0-5--0-2--2---8----8---7-7--7-8-8--8---|
|-0--0-3--0-3---0-5--0-2--2---8----8---7-7--7-8-8--8---|
|-0--0-3--0-3---0-5--0-2--2---8----8---7-7--7-8-8--8---|


  Verse - Gtrs I, II
|------------------------------------------------------------------|
|------------------------------------------------------------------|
|------------------------------------------------------------------|
|-0----------------------------------------------------------------|
|-0----------------------------------------------------------------|
|-0----------------------------------------------------------------|


|------------------------------------------------------------------|
|------------------------------------------------------------------|
|-------------------------------------------------------------5----|
|-0-----------------------------------------------------------5----|
|-0-----------------------------------------------------------3----|
|-0----------------------------------------------------------------|


    Chorus - Gtr I
| |-------------------------------------------------| |
|o|-------------------------------------------------|o|
| |-------------3----------------------2------5--5--| |
| |-0-----------3------------3---------2------5--5--| |
|o|-0-----------1------------3---------0------3--3--|o|
| |-0------------------------3----------------------| |
| |                                                 | |
| |          Gtr II                                 | | Play three times
| |-------------------------------------------------| |
|o|-13-----------------------15---------------------|o|
| |-------------15----------------------------------| |
| |-------------------------------------------------| |
|o|-------------------------------------------------|o|
| |-------------------------------------------------| |

[ Tab from: http://www.guitartabs.cc/tabs/t/three_days_grace/drown_tab_ver_4.html ]
     Gtr I
| |--------------------------------------------| |
|o|--------------------------------------------|o|
| |-------------3----------------------2-------| |
| |-0-----------3------------3---------2-------| |
|o|-0-----------1------------3---------0-------|o|
| |-0------------------------3-----------------| |
| |                                            | |
| |  Gtr II                                    | |
| |--------------------------------------------| |
|o|-13-----------------------15----------------|o|
| |-------------15-----------------------------| |
| |--------------------------------------------| |
|o|--------------------------------------------|o|
| |--------------------------------------------| |


  Gtrs I, II
|-------------------------------------------------------|
|-------------------------------------------------------|
|-------------------------------------------------------|
|-0--0-3--0-3---0-5--0-2--2---8----8---7---7------------|
|-0--0-3--0-3---0-5--0-2--2---8----8---7---7---7----7h8-|
|-0--0-3--0-3---0-5--0-2--2---8----8---7---7-8----8-----|


|------------------------------------------------------|
|------------------------------------------------------|
|------------------------------------------------------|
|-0--0-3--0-3---0-5--0-2--2---8----8---7---7--7-8-8--8-|
|-0--0-3--0-3---0-5--0-2--2---8----8---7---7--7-8-8--8-|
|-0--0-3--0-3---0-5--0-2--2---8----8---7---7--7-8-8--8-|





play verse, then play chorus three times


then play this bridge:
|---------------------------------------------------------------------------------------------------------|
|---------------------------------------------------------------------------------------------------------|
|---------------------------------------------------------------------------------------------------------|
|-0--0-3--0-3---0-5--0-2--2---8----8---7---7-7-7-7-7-7-7--10-10-10-10-10-10-10-10-10-10-10-10-10-10-10-10-|
|-0--0-3--0-3---0-5--0-2--2---8----8---7---7-7-7-7-7-7-7--10-10-10-10-10-10-10-10-10-10-10-10-10-10-10-10-|
|-0--0-3--0-3---0-5--0-2--2---8----8---7---7-7-7-7-7-7-7--10-10-10-10-10-10-10-10-10-10-10-10-10-10-10-10-|


Then play the chorus six times and finish by playing this:


    Gtr I
|------------------------------------------------------------------|
|------------------------------------------------------------------|
|-------------3----------------------2-----------------------------|
|-0-----------3------------3---------2-----------------------------|
|-0-----------1------------3---------0------7----7h8------7----7h8-|
|-0------------------------3------------7-8----8------7-8----8-----|
|                                                                  |
|   Gtr II                                                         |
|------------------------------------------------------------------|
|-13-----------------------15--------------------------------------|
|-------------15---------------------------------------------------| 
|------------------------------------------------------------------|
|------------------------------------------------------------------|
|------------------------------------------------------------------|
When guitar I stops guitar II continues to play this untill the song ends.
Comments