Three Days Grace - Drown Chords & Tabs

 

Drown Chords & Tabs

Three Days Grace Chords & Tabs

Version: 3 Type: Tab 0 ratings
1 star 2 stars 3 stars 4 stars 5 stars
comments

Drown Tab

   
			     Drown (Acoustic)- Three Days Grace
-------------------------------------------------------------------------------
Tabbed by:Cody Bailey
Email:codybailey@hotmail.com
Listen to song for rythem
Tuning:Db,Ab,Db,Gb,Bb,Eb low to high
Intro
e|---------------------------------------------------------|
B|---------------------------------------------------------|
G|---------------------------------------------------------|
D|----3---0---3---0--3---0--2-0-2---8--8--7----------------|
A|----3---0---3---0--3---0--2-0-2---8--8--7-------7---7-8--|
E|----3---0---3---0--3---0--2-0-2---8--8--7---7-8---8------|
Verse
e|----------------------------------------------------------------------------------|
B|----------------------------------------------------------------------------------|
G|----------------------------------------------------------------------------------|
D|-----0-----8--7----x4-------------------------------------------------------------|
A|-----0-----8--7-------------------------------------------------------------------|
E|-----0-----8--7-------------------------------------------------------------------|
Chorus
e|----------------------------------------------------------------------------------|
B|----------------------------------------------------------------------------------|
G|----------------------------------------------------------------------------------|
D|------0-----3-----8---10----------------------------------------------------------|
A|------0-----3-----8---10----------------------------------------------------------|
E|------0-----3-----8---10----------------------------------------------------------|
Bridge  Same as Intro
e|---------------------------------------------------------------------------|
B|---------------------------------------------------------------------------|
G|---------------------------------------------------------------------------|
D|---------------------------------------------------------------------------|
A|---------------------------------------------------------------------------|
E|---------------------------------------------------------------------------|
Bridge 2
e|----------------------------------------------------------------------------------|
B|----------------------------------------------------------------------------------|
G|-----7----------------------------------------------------------------------------|
D|-----7------3----8-----10---------------------------------------------------------|
A|-----5------3----8-----10---------------------------------------------------------|
E|------------3----8-----10---------------------------------------------------------|

Intro Verse Chorus Verse Chorus Bridge Bridge 2 Chorus

| /  slide up
| \  slide down
| h  hammer-on
| p  pull-off
| ~  vibrato
| +  harmonic
| x  Mute note
===============================================================================
[ Tab from: http://www.guitartabs.cc/tabs/t/three_days_grace/drown_tab_ver_3.html ]
Comments