Three Days Grace - Burn Live Chords & Tabs

 

Burn Live Chords & Tabs

Three Days Grace Chords & Tabs

Version: 1 Type: Tab 0 ratings
1 star 2 stars 3 stars 4 stars 5 stars
comments

Burn Live Tab

Three Days Grace - Burn from "Live in Brazil" Limited Edition CD/DVD
Tabbed by Nathan W.
Drop-D Tuning    DADGBE

This is my second 3DG tab and the version 1 tab was great, but I've once again whipped
the live DVD and done some eye and ear transciptions.  
***This is it, strum forstrum, the entire song***

There are notes posted above a few measure to assure that you are playing it right,
3DG plays it!

Thanks - Comments welcome.

INTRO - Part 1A
|---------------------------------------------|
|---------------------------------------------|
|---------------------------------------------|
|---------------------------------------------|  3X
|-0-10-12-0-12-10-0-10-12-0-12-10-0-10-12-13--|
|-0-10-12-0-12-10-0-10-12-0-12-10-0-10-12-13--|

INTRO - Part 1B
|---------------------------------------|
|---------------------------------------|
|---------------------------------------|
|---------------------------------------|  1X
|-0-10-12-0-12-10-0-10-12/0-------------|
|-0-10-12-0-12-10-0-10-12/0-------------|

INTRO - Part 2
|------------------------------------------|
|------------------------------------------|
|------------------------------------------|
|-0-10-12--12-10-0-10-12--12-10--10--12-13-|   4X
|-0-10-12--12-10-0-10-12--12-10--10--12-13-|
|-0-10-12--12-10-0-10-12--12-10--10--12-13-|

INTRO - Part 3
|--------------------------------------|
|--------------------------------------|
|--------------------------------------|
|-0--0--12-10--0-12--0-10--0-12-13-----|  3X
|-0--0--12-10--0-12--0-10--0-12-13-----|
|-0--0--12-10--0-12--0-10--0-12-13-----|

|--------------------------------------|
|--------------------------------------|
|--------------------------------------|
|-0--0--12-10--0-12/0------------------|  1X
|-0--0--12-10--0-12/0------------------|
|-0--0--12-10--0-12/0------------------|

VERSE
When Barry get to the "18's," just strum the note over and over again until the verse.

Barry Stock               v - Very fast tremolo effect on these!
|-------------------------18-18-18-18-------|
|-------------------------------------------|etc
|-------------------------------------------|
|-------------------------------------------|
|-------------------------------------------|
|-------------------------------------------|

Adam Gontier (note: this part was told to me by MITCH WEBB - Thanks man!!)
|-------------------------------------------|
|-------------------------------------------|
|--1--------2-------------------------------|
|--0--13x---0--1X---------------------------|
|-------------------------------------------|
|-------------------------------------------|

PRE-CHORUS
|------------------------------------------|
|-5----------------------------------------|
|-5----------------------------------------|
|-3----------7-7-7-7-8-7-7-7-8-10----------|
|-3----------7-7-7-7-8-7-7-7-8-10----------|
|-3----------7-7-7-7-8-7-7-7-8-10----------|

CHORUS
      V - Gontier plays the open "000" chord here
|------------------------------------------------------------------------|
|------------------------------------------------------------------------|
|-------------(10)--(10)-------------------------------------------------|
|-0--12--7-7---10----10----0-8-5-5-5--0-5-3--0-3-1---7-7-7-7-8-7-7-7-8-10|2X
|-0--12--7-7----8-----8----0-8-5-5-5--0-5-3--0-3-1---7-7-7-7-8-7-7-7-8-10|
|-0--12--7-7----8-----8----0-8-5-5-5--0-5-3--0-3-1---7-7-7-7-8-7-7-7-8-10|
                          
VERSE       4X
PRE-CHORUS  1X
CHORUS      2X

BRIDGE
Part 1A
|---------------------------------------------|
|---------------------------------------------|
|---------------------------------------------|
|---------------------------------------------|  2X
|-0-10-12-0-12-10-0-10-12-0-12-10-0-10-12-13--|
|-0-10-12-0-12-10-0-10-12-0-12-10-0-10-12-13--|
[ Tab from: http://www.guitartabs.cc/tabs/t/three_days_grace/burn_live_tab.html ]
Part 1B
|--------------------------------------------|
|--------------------------------------------|
|--------------------------------------------|
|-0-10-12--12-10-0-10-12--12-10--10--12-13---| 2X
|-0-10-12--12-10-0-10-12--12-10--10--12-13---|
|-0-10-12--12-10-0-10-12--12-10--10--12-13---|

Part 1C

Barry Stock                 v-1/4 bend   v-1/2 bend
|----------------------------------------------------|
|------------------------9--9-(8X)-------9-(6X)----9-|
|--1--------2----------------------------------------|
|--0--13x---0--1X------------------------------------|
|----------------------------------------------------|
|----------------------------------------------------|

Adam Gontier (note: this part was told to me by MITCH WEBB - Thanks man!!)
|-------------------------------------------|
|-------------------------------------------|
|--1--------2-------------------------------|
|--0--13x---0--1X---------------------------|
|-------------------------------------------|
|-------------------------------------------|

                            v-1/4 bend  v-1/2 bend
|---------------------------------------------------|
|------------------------9--9-(8X)------9-(6X)----9-|
|--1--------2---------------------------------------|
|--0--13x---0--1X-----------------------------------|
|---------------------------------------------------|
|---------------------------------------------------|

Adam Gontier (note: this part was told to me by MITCH WEBB - Thanks man!!)
|-------------------------------------------|
|-------------------------------------------|
|--1--------2-------------------------------|
|--0--13x---0--1X---------------------------|
|-------------------------------------------|
|-------------------------------------------|

Part 1D
|---------------------------------------------------|
|---------------------------------------------------|
|---------------------------------------------------|
|--3-----5------3-------7-7-7-7-7-------------------|  1X
|--3-----5------3-------7-7-7-7-7-------------------|
|--3-----5------3-------7-7-7-7-7-------------------|

CHORUS  2X

OUTRO
Part 1A
|---------------------------------------------|
|---------------------------------------------|
|---------------------------------------------|
|---------------------------------------------|  2X
|-0-10-12-0-12-10-0-10-12-0-12-10-0-10-12-13--|
|-0-10-12-0-12-10-0-10-12-0-12-10-0-10-12-13--|

Part 1B
|--------------------------------------------|
|--------------------------------------------|
|--------------------------------------------|
|-0-10-12--12-10-0-10-12--12-10--10--12-13---|   2X
|-0-10-12--12-10-0-10-12--12-10--10--12-13---|
|-0-10-12--12-10-0-10-12--12-10--10--12-13---|

Part 1C
|-------------------------------------|
|-------------------------------------|
|-------------------------------------|
|-0-12-10-0-10-12--12-10--10--12-13---|
|-0-12-10-0-10-12--12-10--10--12-13---|
|-0-12-10-0-10-12--12-10--10--12-13---|

Part 1D
|--------------------------------------------|
|--------------------------------------------|
|--------------------------------------------|
|-0-10-12--12-10-0-10-12--12-10--10--12-13---|
|-0-10-12--12-10-0-10-12--12-10--10--12-13---|
|-0-10-12--12-10-0-10-12--12-10--10--12-13---|

Part 2A
|---------------------------------------------|
|---------------------------------------------|
|---------------------------------------------|
|-------0-0-12-10-0-10-12--12-10--10--12-13---| 3X
|-------0-0-12-10-0-10-12--12-10--10--12-13---|
|-------0-0-12-10-0-10-12--12-10--10--12-13---|

Part 2B
|-------------------------------------------|
|-------------------------------------------|
|-------------------------------------------|
|-------0-0-12-10-0-10--12-12-10-10-12-13---|
|-------0-0-12-10-0-10--12-12-10-10-12-13---|
|-------0-0-12-10-0-10--12-12-10-10-12-13---|

Part 3A
|---------------------------------------|
|---------------------------------------|
|---------------------------------------|
|-0-0-0--12-10--0-12--0-10--10-12-13----|  4X
|-0-0-0--12-10--0-12--0-10--10-12-13----|
|-0-0-0--12-10--0-12--0-10--10-12-13----|

That's all - Please rate this one for me!!!
Comments