Three Days Grace - Burn Chords & Tabs

 

Burn Chords & Tabs

Three Days Grace Chords & Tabs

Version: 1 Type: Bass Tab 0 ratings
1 star 2 stars 3 stars 4 stars 5 stars
comments

Burn Bass Tab

   
Band- Three Days Grace
Song- Burn
Tuning- Drop D

Intro
G|--------------------|    |--------------|
D|--------------------|    |--------------|
A|-035053-035053-0356-| x3 |-035053-035\0-|
E|--------------------|    |--------------|
B|--------------------|    |--------------|

G|---------------|
D|---------------|
A|-0355303535356-| x4 
E|---------------|
B|---------------|

G|--------------|         |-----------|
D|--------------|         |-----------|
A|----533553356-| x4 then |----5335\0-|
E|--------------|         |-----------|
B|-33-----------|         |-33--------|

Verse 1 (same as intro)
G|--------------------|
D|--------------------|
A|-035053-035053-0356-| x8
E|--------------------|
B|--------------------|

Verse 2
G|--------------------------|
D|--------------------------|
A|----------0000-101333-----|
E|-11111111-----------------|
B|--------------------------|

G|------------------------------------|
D|-00---------------------------------|
A|----00-1111-1-----------0000-101333-| x2
E|--------------3333-11---------------|
B|----------------------4-------------|

Verse 3
G|--------------------|       |--------------------|
D|--------------------|       |--------------------|
A|-035053-035053-0356-| break |-035053-035053-0356-| x6
E|--------------------|       |--------------------|
B|--------------------|       |--------------------|

Verse 4

G|--------------------------|
D|--------------------------|
A|----------0000-101333-----|
E|-11111111-----------------|
B|--------------------------|
[ Tab from: http://www.guitartabs.cc/tabs/t/three_days_grace/burn_btab.html ]
G|------------------------------------|
D|-00---------------------------------|
A|----00-1111-1-----------0000-101333-| x2
E|--------------3333-11---------------|
B|----------------------4-------------|

Verse 5
G|--------------------|
D|--------------------|
A|-035053-035053-0356-| x2
E|--------------------|
B|--------------------|

Solo
G|---------------|
D|---------------|
A|-0355303535356-| x2 before then x4 during guitar solo
E|---------------|
B|---------------|

Verse 6
G|----------------------------------|
D|----------------------------------|
A|----------------------------00000-|        
E|-11111111-33333333-11111111-------|
B|----------------------------------|

G|------------------------------------|
D|-00---------------------------------|
A|----00-1111-1-----------0000-101333-| x2
E|--------------3333-11---------------|
B|----------------------4-------------|

Outro
G|--------------------|
D|--------------------|
A|-035053-035053-0356-| x2
E|--------------------|
B|--------------------|

G|---------------|
D|---------------|
A|-0355303535356-| x2
E|---------------|
B|---------------|

G|------------------------------|
D|------------------------------|
A|---53035535356-03553035535356-| 
E|------------------------------|
B|-3----------------------------|

G|----------------|         G|---------------|
D|----------------|         D|---------------|
A|----53035535356-| x3 then A|----5303553356-|
E|----------------|         E|---------------|
B|-33-------------|         B|-33------------|

G|--------------|    
D|--------------|    
A|----533553356-| x4
E|--------------|    
B|-33-----------|
Comments