Three Days Grace - Born Like This Chords & Tabs

 

Born Like This Chords & Tabs

Three Days Grace Chords & Tabs

Version: 3 Type: Tab 0 ratings
1 star 2 stars 3 stars 4 stars 5 stars
comments

Born Like This Tab

   
Band- Three Days Grace
Song- Born Like This

Tuning:Drop D                   

                       
INTRO(palm muted)         
e|---------------------------------------------------------------------------|
B|---------------------------------------------------------------------------|
G|---------------------------------------------------------------------------|
D|---------------------------------------------------------------------------|
A|---------------------------------------------------------------------------|
D|0-00-2-2-3-6666-5---------------------x4-----------------------------------|
 

 Guitar 1 
e|---------------------------------------------------------------------------|
B|---------------------------------------------------------------------------|
G|---------------------------------------------------------------------------|
D|---------------------------------------------------------------------------|
A|0-00-2-2-3-6666-5----------------------------------------------------------|
D|0-00-2-2-3-6666-5---------------------x4-----------------------------------|


  Guitar 2
e|---------------------------------------------------------------------------|
B|---------------------------------------------------------------------------|
G|---------------------------------------------------------------------------|
D|7-77-9-9-10-13-13-13-13-12-------------------------------------------------|
A|5-55-7-7-8--11-11-11-11-10-------------------------------------------------|
D|--------------------------------------x4-----------------------------------|


Verse-palm muted
e|---------------------------------------------------------------------------|
B|---------------------------------------------------------------------------|
G|---------------------------------------------------------------------------|
D|---------------------------------------------------------------------------|
A|---------------------------------------------------------------------------|
D|0000----------0000----------0000----------0000-----------------------------|

[ Tab from: http://www.guitartabs.cc/tabs/t/three_days_grace/born_like_this_tab_ver_3.html ]
Pre-Chorus
e|---------------------------------------------------------------------------|
B|---------------------------------------------------------------------------|
G|---------------------------------------------------------------------------|
D|5-------2-------5-------------------------3-3---3-3------------------------|
A|3-------0-------3-------1-1-1-1-1-1-1-1-1-1-1-1-1-1-1-1--------------------|
D|------------------------1-1-1-1-1-1-1-1-1-----1-----1-1--------------------|


Chorus-also use Guitar 2 part above
e|---------------------------------------------------------------------------|
B|---------------------------------------------------------------------------|
G|---------------------------------------------------------------------------|
D|---------------------------------------------------------------------------|
A|0-00-2-2-3-6666-5----------------------------------------------------------|
D|0-00-2-2-3-6666-5---------------x8-----------------------------------------|


repeat verse, pre chorus, and chorus


Bridge after Second Chorus
e|---------------------------------------------------------------------------|
B|---------------------------------------------------------------------------|
G|---------------------------------------------------------------------------|
D|5----------2----------5----------2----------5----------2-------------------|
A|3----------0----------3----------0----------3----------0-------------------|
D|---------------------------------------------------------------------------|

e|---------------------------------------------------------------------------|
B|---------------------------------------------------------------------------|
G|---------------------------------------------------------------------------|
D|------------------3-3---3-3------------------------------------------------|
A|1-1-1-1-1-1-1-1-1-1-1-1-1-1-1-1--------------------------------------------|
D|1-1-1-1-1-1-1-1-1-----1-----1-1--------------------------------------------|

then repeat intro,and chorus


| /  slide up
| \  slide down
| h  hammer-on
| p  pull-off
| ~  vibrato
| +  harmonic
| x  Mute note
=============================================================================
Comments