Three Days Grace - Born Like This Chords & Tabs

 

Born Like This Chords & Tabs

Three Days Grace Chords & Tabs

Version: 2 Type: Tab 0 ratings
1 star 2 stars 3 stars 4 stars 5 stars
comments

Born Like This Tab

   
tuning
1:E
2:B
3:G
4:D
5:A
6:D

KEY
^BEND HIGH
~VIBROTO


VERY EASY


-------------------------------|
-------------------------------|
-------------------------------|
-------------------------------|  4X
-------------------------------|
-0--0-0-2-2-3-6-6-6-6-5^-------|


-------------------------------|
-------------------------------|
-------------------------------|
-0-2-3-6-6-6-6-5-5-5-----------|  4X
-0-2-3-6-6-6-6-5-5-5-----------|
-0-2-3-6-6-6-6-5-5-5-----------|

[ Tab from: http://www.guitartabs.cc/tabs/t/three_days_grace/born_like_this_tab_ver_2.html ]
---------------------------------------------------------------|
---------------------------------------------------------------|
---------------------------------------------------------------| 3X
-0-0-0---------------------------------------------------------|
-------0--0-------------1-1--0-0-------1---0----------1-1----3-|
------------2-2-2-3--0-----------0-0-0-------3-3-3-5-----------|

PM_____________________________

-------------------------------|
-------------------------------|
-------------------------------|
-------------------------------|
-0-0-0-0------0-0-0-0----------|
-0-0-0-0------0-0-0-0----------|


-------------------------------|
-0-----0----0------------------|
-0-----2----0------------------|
-3-----2----3------------------|
-2-----0----2------------------|
-------------------------------|

--------------------------------------|
--------------------------------------|
--------------------------------------|
-88888888--8--X-3-3---X-X-3-3-3--X--1-|
-88888888--8--X-3-3---X-X-3-3-3--X--1-|
-88888888--8--X-3-3---X-X-3-3-3--X--1-|


THERE THATS ALL THATS PRETTY MUCH TO THE SONGGOOD LUCK ITS FUN I HAVE THE SONGBOOK SO IT 
BE PERFECT OK HAVE FUN AND IF THERES IS ANY REQUEST FOR ANY MORE SONGS EMIAL ME   SKATEBOY0404@VERIZON.NET
Comments