Three Days Grace - Animal I Have Become Chords & Tabs

 

Animal I Have Become Chords & Tabs

Three Days Grace Chords & Tabs

Version: 1 Type: Tab 2 ratings
1 star 2 stars 3 stars 4 stars 5 stars
comments

Animal I Have Become Tab

ANIMAL I HAVE BECOME

Tuning: Drop C

intro: ( bass intro first )

|---------------------------------------------------------------|
|---------------------------------------------------------------|
|---------------------------------------------------------------|
|---------------------------------------------------------------|
|-00----------7-------------------------------------------------|
|-00------7-8---8-7---------------------------------------------|x4

|---------------------------------------------------------------|
|---------------------------------------------------------------|
|---------------------------------------------------------------|
|-00------------------------------------------------------------|
|-00----------7-------------------------------------------------|
|-00------7-8---8-7---------------------------------------------|x3

|---------------------------------------------------------------|
|---------------------------------------------------------------|
|---------------------------------------------------------------|
|-00------------------------------------------------------------|
|-00----------7-------------------------------------------------|
|-00------7-8---8-----------------------------------------------|x1


Verse:

|---------------------------------------------------------------|
|---------------------------------------------------------------|
|---------------------------------------------------------------|
|-33-333-333-333------------------------------------------------|
|-33-333-333-333----------00------7----------00------7----------|
|-33-333-333-333--5v------00--7-8---8-7------00--7-8---8--------|x3


Pre-chorus:

|---------------------------------------------------------------|
|---------------------------------------------------------------|
|---------------------------------------------------------------|
|--33-333-333-333-3-555-555-5-8~--------------------------------|
|--33-333-333-333-3-555-555-5-8~--------------------------------|
|--33-333-333-333-3-555-555-5-8~--------------------------------|x1


Chorus:

Guitar 1:
|---------------------------------------------------------------|
|--------10's---------------------------------------------------|
|--------V------------------------------------------------------|
|-00-10101010-33-7-78--00-10101010-33-55-32---------------------|
|-00-10101010-33-7-78--00-10101010-33-55-32---------------------|
|-00-10101010-33-7-78--00-10101010-33-55-32---------------------|x1

|---------------------------------------------------------------|
|---------------------------------------------------------------|
|---------------------------------------------------------------|
|-00-10101010-33-7-78--00-10101010-33--5-3-2~-------------------|
|-00-10101010-33-7-78--00-10101010-33--5-3-2~-------------------|
|-00-10101010-33-7-78--00-10101010-33--5-3-2~-------------------|x1

Guitar 2:
|-------12-12-13-13-17~-17-18-------12-12-13-13-15~-13-12-------|
|-15-15-----------------------15-15-----------------------------|
|---------------------------------------------------------------|
|---------------------------------------------------------------|
|---------------------------------------------------------------|
|---------------------------------------------------------------|x2


Re-intro:

|---------------------------------------------------------------|
|---------------------------------------------------------------|
|---------------------------------------------------------------|
|---------------------------------------------------------------|
|-00----------7------00----------7------------------------------|
|-00------7-8---8-7--00------7-8---8----------------------------|x1


Verse 2:

|---------------------------------------------------------------|
|---------------------------------------------------------------|
|---------------------------------------------------------------|
|-33-333-333-333------------------------------------------------|
|-33-333-333-333----------00------7----------00------7----------|
|-33-333-333-333--5v------00--7-8---8-7------00--7-8---8--------|x3


Pre-Chorus:

|---------------------------------------------------------------|
|---------------------------------------------------------------|
|---------------------------------------------------------------|
|--33-333-333-333-3-555-555-5-8~--------------------------------|
|--33-333-333-333-3-555-555-5-8~--------------------------------|
|--33-333-333-333-3-555-555-5-8~--------------------------------|x1


Chorus 2:
[ Tab from: http://www.guitartabs.cc/tabs/t/three_days_grace/animal_i_have_become_tab.html ]
Guitar 1:
|---------------------------------------------------------------|
|--------10's---------------------------------------------------|
|--------V------------------------------------------------------|
|-00-10101010-33-7-78--00-10101010-33-55-32---------------------|
|-00-10101010-33-7-78--00-10101010-33-55-32---------------------|
|-00-10101010-33-7-78--00-10101010-33-55-32---------------------|x2

|---------------------------------------------------------------|
|---------------------------------------------------------------|
|---------------------------------------------------------------|
|-00-10101010-33-7-78--00-10101010-33--5-3-2-0~-----------------|
|-00-10101010-33-7-78--00-10101010-33--5-3-2-0~-----------------|
|-00-10101010-33-7-78--00-10101010-33--5-3-2-0~-----------------|x1

Guitar 2:
|-------12-12-13-13-17~-17-18-------12-12-13-13-15~-13-12-------|
|-15-15-----------------------15-15-----------------------------|
|---------------------------------------------------------------|
|---------------------------------------------------------------|
|---------------------------------------------------------------|
|---------------------------------------------------------------|x3


Bridge:

Quick pickslide THEN ...

|---------------------------------------------------------------|
|---------------------------------------------------------------|
|---------------------------------------------------------------|
|-88-888-555-5----------00-000-333-333-3------------------------|
|-88-888-555-5----7-----00-000-333-333-3------------------------|
|-88-888-555-5--8---8-7-00-000-333-333-3------------------------|x2

|---------------------------------------------------------------|
|---------------------------------------------------------------|
|-----------------9---------------------------------------------|
|-88-888-8--0-7-8---8-7--0~~------------------------------------|
|-88-888-8---------------0~~------------------------------------|
|-88-888-8---------------0~~------------------------------------|x1


Re-intro:

|---------------------------------------------------------------|
|---------------------------------------------------------------|
|---------------------------------------------------------------|
|---------------------------------------------------------------|
|-00----------7-------------------------------------------------|
|-00------7-8---8-7---------------------------------------------|x4


Chorus 3: (TWO riffs of no bass and treble first)

Guitar 1:
|---------------------------------------------------------------|
|--------10's---------------------------------------------------|
|--------V------------------------------------------------------|
|-00-10101010-33-7-78--00-10101010-33-55-32---------------------|
|-00-10101010-33-7-78--00-10101010-33-55-32---------------------|
|-00-10101010-33-7-78--00-10101010-33-55-32---------------------|x1

|---------------------------------------------------------------|
|---------------------------------------------------------------|
|---------------------------------------------------------------|
|-00-10101010-33-7-78--00-10101010-33--5-3-2-0~-----------------|
|-00-10101010-33-7-78--00-10101010-33--5-3-2-0~-----------------|
|-00-10101010-33-7-78--00-10101010-33--5-3-2-0~-----------------|x1

Guitar 2:
|-------12-12-13-13-17~-17-18-------12-12-13-13-15~-13-12-------|
|-15-15-----------------------15-15-----------------------------|
|---------------------------------------------------------------|
|---------------------------------------------------------------|
|---------------------------------------------------------------|
|---------------------------------------------------------------|x2


Outro:

|---------------------------------------------------------------|
|---------------------------------------------------------------|
|---------------------------------------------------------------|
|-00------------------------------------------------------------|
|-00----------7-------------------------------------------------|
|-00------7-8---8-7---------------------------------------------|x6

|---------------------------------------------------------------|
|---------------------------------------------------------------|
|-------9v------------------------------------------------------|
|-0-7-8----8-7--------------------------------------------------|
|---------------------------------------------------------------|
|---------------------------------------------------------------|x4

|---------------------------------------------------------------|
|---------------------------------------------------------------|
|---------------------------------------------------------------|
|-0~~~~~--------------------------------------------------------|
|-0~~~~~--------------------------------------------------------|
|-0~~~~~--------------------------------------------------------|x1

then a long, kinda slow, pickslide to 1st fret, and you have played the greatest song I have ever heard lol j/k
Comments