Thousand Foot Krutch - When In Doubt Chords & Tabs

 

When In Doubt Chords & Tabs

Thousand Foot Krutch Chords & Tabs

Version: 5 Type: Tab 0 ratings
1 star 2 stars 3 stars 4 stars 5 stars
comments

When In Doubt Tab

   
Song: When In Doubt (Track #4)
Band: Thousand Foot Krutch
Album: Set It Off
Copyright: 2000 DJD Entertainment
Tabbed By: Me (Yoshi) T (Santhomasito@hotmail.com)


Standard Tuning


Intro & Verse (clean):
(1)
e-----------------------------------------------------------------------------|
b-----------------------------------------------------------------------------|
g----------7------------------------------------------------------------------|
D------7-------7----------------7----------------9----------------------------|
A--5-5---5---5---5--------7-------7----------9-------9-----------5-----5------|
E---------------------5-5---5-5-----5----7-7---7---7----7----3-3---3-3---3\5--|
(2)
e-----------------------------------------------------------------------------|
b-----------------------------------------------------------------------------|
g----------7------------------------------------------------------------------|
D------7-------7--------------7---7--------------9----------------------------|
A--5-5---5---5---5--------7---------7--------9-------9-----------5-----5------|
E---------------------5-5---5---5--------7-7---7---7----7----3-3---3-3---3\5--|

(1)X2
(2)X2

(on last time around)
e----
B----
G----
D-3-3
A-3-3
E-5-5

Distortion Part: (lead)(X2)
e------------------------------------------------|
B------------------------------------------------|
G------------------------------------------------|
D--7-7-5-5-4---7-7-5-5-4---7-7-5-5-4---0-0-4-4-5-|
A------------------------------------------------|
E------------------------------------------------|


Rythm Part: w/lead(X2)
e------------------------------------------------------------|
b------------------------------------------------------------|
g--7-7-7-7-7-7-----------------------------------------------|
D--7-7-7-7-7-7--7-7-7-7-7-7-7--9-9-9-9-9-9-9---5-5-5-5-5-5-5-|
A--5-5-5-5-5-5--7-7-7-7-7-7-7--9-9-9-9-9-9-9---5-5-5-5-5-5-5-|
E---------------5-5-5-5-5-5-5--7-7-7-7-7-7-7---3-3-3-3-3-3-3-|


Verse (distortion): X2
e-------------------------------------|
B-------------------------------------|
G--7-x-x-7----------------------------|
D--7-x-x-7--7-x-x-7--9-x-x-9--5-x-x-5-|
A--5-x-x-5--7-x-x-7--9-x-x-9--5-x-x-5-|
E-----------5-x-x-5--7-x-x-7--3-x-x-3-|


Verse (distortion): X2
e---------------------------------------------------------------------|
B---------------------------------------------------------------------|
G--7-7-7-7-7-7-7-7----------------------------------------------------|
D--7-7-7-7-7-7-7-7--7-7-7-7-7-7-7-7--9-9-9-9-9-9-9-9--5-5-5-5-5-5-5-5-|
A--5-5-5-5-5-5-5-5--7-7-7-7-7-7-7-7--9-9-9-9-9-9-9-9--5-5-5-5-5-5-5-5-|
E-------------------5-5-5-5-5-5-5-5--7-7-7-7-7-7-7-7--3-3-3-3-3-3-3-3-|


Chorus (distortion): X2
e-------------------------------------------|
B-------------------------------------------|
G--7-7-x-x-7-7------------------------------|
D--7-7-x-x-7-7--7-7-x-x-7-7--9-9-x-x-9-9--5-|
A--5-5-x-x-5-5--7-7-x-x-7-7--9-9-x-x-9-9--5-|
E---------------5-5-x-x-5-5--7-7-x-x-7-7--3-|


Distortion Part: (lead)X2
e------------------------------------------------|
B------------------------------------------------|
G------------------------------------------------|
D--7-7-5-5-4---7-7-5-5-4---7-7-5-5-4---0-0-4-4-5-|
A------------------------------------------------|
E------------------------------------------------|

[ Tab from: http://www.guitartabs.cc/tabs/t/thousand_foot_krutch/when_in_doubt_tab_ver_5.html ]
Rythm Part: X2 w/lead
e------------------------------------------------------------|
b------------------------------------------------------------|
g--7-7-7-7-7-7-----------------------------------------------|
D--7-7-7-7-7-7--7-7-7-7-7-7-7--9-9-9-9-9-9-9---5-5-5-5-5-5-5-|
A--5-5-5-5-5-5--7-7-7-7-7-7-7--9-9-9-9-9-9-9---5-5-5-5-5-5-5-|
E---------------5-5-5-5-5-5-5--7-7-7-7-7-7-7---3-3-3-3-3-3-3-|


(on 2nd time around)
e--------------|
B--------------|
G-3----------3-|
D-3----------3-|
A-5----------5-|
E--------------|


Solo:   (w/ dist.) X3
e-----------------------------------|--------------|
B-----------------------------------|--------------|
G-----------------------------------|--------------|
D--7-7-7-7-7-7-7-7-7-7-7-7-7-7-7-7-7|------5-5-4-5-|
A-----------------------------------|--------------|
E-----------------------------------|--------------|

(X1)
e--------------------------------------------------|
B--------------------------------------------------|
G--------------------------------------------------|
D--7-7-7-7-7-7-7-7-7-7-7-7-7-7-7-7-7-7-7-7-7-7-7-7-|
A--------------------------------------------------|
E--------------------------------------------------|


Verse (distortion):
e---------------------------------------------------------------------|
B---------------------------------------------------------------------|
G--7-7-7-7-7-7-7-7----------------------------------------------------|
D--7-7-7-7-7-7-7-7--7-7-7-7-7-7-7-7--9-9-9-9-9-9-9-9--5-5-5-5-5-5-5-5-|
A--5-5-5-5-5-5-5-5--7-7-7-7-7-7-7-7--9-9-9-9-9-9-9-9--5-5-5-5-5-5-5-5-|
E-------------------5-5-5-5-5-5-5-5--7-7-7-7-7-7-7-7--3-3-3-3-3-3-3-3-|


e---------------------------------------------------------|
B---------------------------------------------------------|
G--7-7-7-7-7-7-7-7----------------------------------------|
D--7-7-7-7-7-7-7-7--7-7-7-7-7-7-7-7--9-9-9-9-9-9-9-9--5-5-|
A--5-5-5-5-5-5-5-5--7-7-7-7-7-7-7-7--9-9-9-9-9-9-9-9--5-5-|
E-------------------5-5-5-5-5-5-5-5--7-7-7-7-7-7-7-7--3-3-|


Chorus (distortion): X2
e-------------------------------------------|
B-------------------------------------------|
G--7-7-x-x-7-7------------------------------|
D--7-7-x-x-7-7--7-7-x-x-7-7--9-9-x-x-9-9--5-|
A--5-5-x-x-5-5--7-7-x-x-7-7--9-9-x-x-9-9--5-|
E---------------5-5-x-x-5-5--7-7-x-x-7-7--3-|


Distortion Part: (lead)X2
e------------------------------------------------|
B------------------------------------------------|
G------------------------------------------------|
D--7-7-5-5-4---7-7-5-5-4---7-7-5-5-4---0-0-4-4-5-|
A------------------------------------------------|
E------------------------------------------------|


Rythm Part: X2 w/lead
e------------------------------------------------------------|
b------------------------------------------------------------|
g--7-7-7-7-7-7-----------------------------------------------|
D--7-7-7-7-7-7--7-7-7-7-7-7-7--9-9-9-9-9-9-9---5-5-5-5-5-5-5-|
A--5-5-5-5-5-5--7-7-7-7-7-7-7--9-9-9-9-9-9-9---5-5-5-5-5-5-5-|
E---------------5-5-5-5-5-5-5--7-7-7-7-7-7-7---3-3-3-3-3-3-3-|


End:
e-------------------------------------|
B-------------------------------------|
G--7-x-x-7----------------------------|
D--7-x-x-7--7-x-x-7--9-x-x-9--5-x-x-5-|
A--5-x-x-5--7-x-x-7--9-x-x-9--5-x-x-5-|
E-----------5-x-x-5--7-x-x-7--3-x-x-3-|


e--------------------|
B--------------------|
G------------------7-|
D-5-5-5-5-5-5-5-5--7-|
A-5-5-5-5-5-5-5-5--5-|
E-3-3-3-3-3-3-3-3----|


First off, i didn't tab this. I'm not that skilled, yet. I gathered tab from
various and then compiled them.I listened to the song a billion times.
It's one of the best tabs the way of order and construction) there is.
My gratitude goes to those who actually tabbed this song. It isn't perfect,
of course, but very near close. For timing and rhythm one 
definately listen to the cd. Give it a shot. It's an amazing song. TFK,
the best christian rock/rap band out there. Rock out. Have fun. Got a
question, write me. Peace. Oh, and, of course, embarass yourself trying.

Josh
Comments